  0
SECTION
  2
HEADER
  9
$ACADVER
  1
AC1015
  9
$ACADMAINTVER
 70
               6
  9
$DWGCODEPAGE
  3
ANSI_932
  9
$INSBASE
 10
0.0
 20
0.0
 30
0.0
  9
$EXTMIN
 10
-13850.0
 20
-6350.0
 30
-204.61111111111109
  9
$EXTMAX
 10
19912.707792887366
 20
14061.965
 30
204.61111111111109
  9
$LIMMIN
 10
0.0
 20
0.0
  9
$LIMMAX
 10
0.0
 20
0.0
  9
$ORTHOMODE
 70
               0
  9
$REGENMODE
 70
               1
  9
$FILLMODE
 70
               1
  9
$QTEXTMODE
 70
               0
  9
$MIRRTEXT
 70
               1
  9
$LTSCALE
 40
508.0
  9
$ATTMODE
 70
               1
  9
$TEXTSIZE
 40
0.2
  9
$TRACEWID
 40
1.0
  9
$TEXTSTYLE
  7
Standard
  9
$CLAYER
  8
平面図
  9
$CELTYPE
  6
Continuous
  9
$CECOLOR
 62
             256
  9
$CELTSCALE
 40
1.0
  9
$DISPSILH
 70
               0
  9
$DIMSCALE
 40
1.0
  9
$DIMASZ
 40
0.18
  9
$DIMEXO
 40
0.0625
  9
$DIMDLI
 40
0.38
  9
$DIMRND
 40
0.0
  9
$DIMDLE
 40
0.0
  9
$DIMEXE
 40
0.18
  9
$DIMTP
 40
0.0
  9
$DIMTM
 40
0.0
  9
$DIMTXT
 40
0.18
  9
$DIMCEN
 40
0.09
  9
$DIMTSZ
 40
0.0
  9
$DIMTOL
 70
               0
  9
$DIMLIM
 70
               0
  9
$DIMTIH
 70
               1
  9
$DIMTOH
 70
               1
  9
$DIMSE1
 70
               0
  9
$DIMSE2
 70
               0
  9
$DIMTAD
 70
               0
  9
$DIMZIN
 70
               0
  9
$DIMBLK
  1

  9
$DIMASO
 70
               1
  9
$DIMSHO
 70
               1
  9
$DIMPOST
  1

  9
$DIMAPOST
  1

  9
$DIMALT
 70
               0
  9
$DIMALTD
 70
               2
  9
$DIMALTF
 40
25.399999999999999
  9
$DIMLFAC
 40
1.0
  9
$DIMTOFL
 70
               0
  9
$DIMTVP
 40
0.0
  9
$DIMTIX
 70
               0
  9
$DIMSOXD
 70
               0
  9
$DIMSAH
 70
               0
  9
$DIMBLK1
  1

  9
$DIMBLK2
  1

  9
$DIMSTYLE
  2
Standard
  9
$DIMCLRD
 70
               0
  9
$DIMCLRE
 70
               0
  9
$DIMCLRT
 70
               0
  9
$DIMTFAC
 40
1.0
  9
$DIMGAP
 40
0.09
  9
$DIMJUST
 70
               0
  9
$DIMSD1
 70
               0
  9
$DIMSD2
 70
               0
  9
$DIMTOLJ
 70
               1
  9
$DIMTZIN
 70
               0
  9
$DIMALTZ
 70
               0
  9
$DIMALTTZ
 70
               0
  9
$DIMUPT
 70
               0
  9
$DIMDEC
 70
               4
  9
$DIMTDEC
 70
               4
  9
$DIMALTU
 70
               2
  9
$DIMALTTD
 70
               2
  9
$DIMTXSTY
  7
Standard
  9
$DIMAUNIT
 70
               0
  9
$DIMADEC
 70
               0
  9
$DIMALTRND
 40
0.0
  9
$DIMAZIN
 70
               0
  9
$DIMDSEP
 70
               0
  9
$DIMATFIT
 70
               3
  9
$DIMFRAC
 70
               0
  9
$DIMLDRBLK
  1

  9
$DIMLUNIT
 70
               2
  9
$DIMLWD
 70
               0
  9
$DIMLWE
 70
               0
  9
$DIMTMOVE
 70
               0
  9
$LUNITS
 70
               2
  9
$LUPREC
 70
               4
  9
$SKETCHINC
 40
0.1
  9
$FILLETRAD
 40
0.0
  9
$AUNITS
 70
               0
  9
$AUPREC
 70
               0
  9
$MENU
  1
acad
  9
$ELEVATION
 40
0.0
  9
$PELEVATION
 40
0.0
  9
$THICKNESS
 40
0.0
  9
$LIMCHECK
 70
               0
  9
$CHAMFERA
 40
0.0
  9
$CHAMFERB
 40
0.0
  9
$CHAMFERC
 40
0.0
  9
$CHAMFERD
 40
0.0
  9
$SKPOLY
 70
               0
  9
$TDCREATE
 40
2456206.527870371
  9
$TDUCREATE
 40
0.000000000
  9
$TDUPDATE
 40
2456206.527870371
  9
$TDUUPDATE
 40
0.000000000
  9
$TDINDWG
 40
0.0000000000
  9
$TDUSRTIMER
 40
0.0000000000
  9
$USRTIMER
 70
               1
  9
$ANGBASE
 50
0.0
  9
$ANGDIR
 70
               0
  9
$PDMODE
 70
               1
  9
$PDSIZE
 40
-2.0
  9
$PLINEWID
 40
0.0
  9
$SPLFRAME
 70
               0
  9
$SPLINETYPE
 70
               6
  9
$SPLINESEGS
 70
               8
  9
$HANDSEED
  5
240
  9
$SURFTAB1
 70
               6
  9
$SURFTAB2
 70
               6
  9
$SURFTYPE
 70
               6
  9
$SURFU
 70
               6
  9
$SURFV
 70
               6
  9
$UCSBASE
  2

  9
$UCSNAME
  2

  9
$UCSORG
 10
0.0
 20
0.0
 30
0.0
  9
$UCSXDIR
 10
1.0
 20
0.0
 30
0.0
  9
$UCSYDIR
 10
0.0
 20
1.0
 30
0.0
  9
$UCSORTHOREF
  2

  9
$UCSORTHOVIEW
 70
               0
  9
$UCSORGTOP
 10
0.0
 20
0.0
 30
0.0
  9
$UCSORGBOTTOM
 10
0.0
 20
0.0
 30
0.0
  9
$UCSORGLEFT
 10
0.0
 20
0.0
 30
0.0
  9
$UCSORGRIGHT
 10
0.0
 20
0.0
 30
0.0
  9
$UCSORGFRONT
 10
0.0
 20
0.0
 30
0.0
  9
$UCSORGBACK
 10
0.0
 20
0.0
 30
0.0
  9
$PUCSBASE
  2

  9
$PUCSNAME
  2

  9
$PUCSORG
 10
0.0
 20
0.0
 30
0.0
  9
$PUCSXDIR
 10
1.0
 20
0.0
 30
0.0
  9
$PUCSYDIR
 10
0.0
 20
1.0
 30
0.0
  9
$PUCSORTHOREF
  2

  9
$PUCSORTHOVIEW
 70
               0
  9
$PUCSORGTOP
 10
0.0
 20
0.0
 30
0.0
  9
$PUCSORGBOTTOM
 10
0.0
 20
0.0
 30
0.0
  9
$PUCSORGLEFT
 10
0.0
 20
0.0
 30
0.0
  9
$PUCSORGRIGHT
 10
0.0
 20
0.0
 30
0.0
  9
$PUCSORGFRONT
 10
0.0
 20
0.0
 30
0.0
  9
$PUCSORGBACK
 10
0.0
 20
0.0
 30
0.0
  9
$USERI1
 70
               0
  9
$USERI2
 70
               0
  9
$USERI3
 70
               0
  9
$USERI4
 70
               0
  9
$USERI5
 70
               0
  9
$USERR1
 40
0.0
  9
$USERR2
 40
0.0
  9
$USERR3
 40
0.0
  9
$USERR4
 40
0.0
  9
$USERR5
 40
0.0
  9
$WORLDVIEW
 70
               1
  9
$SHADEDGE
 70
               3
  9
$SHADEDIF
 70
              70
  9
$TILEMODE
 70
               1
  9
$MAXACTVP
 70
              64
  9
$PINSBASE
 10
0.0
 20
0.0
 30
0.0
  9
$PLIMCHECK
 70
               0
  9
$PEXTMIN
 10
1.0000000000000000E+20
 20
1.0000000000000000E+20
 30
1.0000000000000000E+20
  9
$PEXTMAX
 10
-1.0000000000000000E+20
 20
-1.0000000000000000E+20
 30
-1.0000000000000000E+20
  9
$PLIMMIN
 10
0.0
 20
0.0
  9
$PLIMMAX
 10
12.0
 20
9.0
  9
$UNITMODE
 70
               0
  9
$VISRETAIN
 70
               0
  9
$PLINEGEN
 70
               1
  9
$PSLTSCALE
 70
               0
  9
$TREEDEPTH
 70
            3020
  9
$CMLSTYLE
  2
Standard
  9
$CMLJUST
 70
               0
  9
$CMLSCALE
 40
1.0
  9
$PROXYGRAPHICS
 70
               0
  9
$MEASUREMENT
 70
               0
  9
$CELWEIGHT
370
               0
  9
$ENDCAPS
280
               0
  9
$JOINSTYLE
280
               0
  9
$LWDISPLAY
290
               1
  9
$INSUNITS
 70
               4
  9
$HYPERLINKBASE
  1

  9
$STYLESHEET
  1

  9
$XEDIT
290
               1
  9
$CEPSNTYPE
380
               0
  9
$PSTYLEMODE
290
               1
  9
$FINGERPRINTGUID
  2

  9
$VERSIONGUID
  2

  9
$EXTNAMES
290
               1
  9
$PSVPSCALE
 40
0.0
  0
ENDSEC
  0
SECTION
  2
CLASSES
  0
CLASS
  1
LWPOLYLINE
  2
AcDbPolyline
  3
AutoCAD 2000
 90
        0
280
               0
281
               1
  0
CLASS
  1
IMAGE
  2
AcDbRasterImage
  3
ISM
 90
      127
280
               0
281
               1
  0
CLASS
  1
OLE2FRAME
  2
AcDbOle2Frame
  3
AutoCAD 2000
 90
        0
280
               0
281
               1
  0
CLASS
  1
HATCH
  2
AcDbHatch
  3
AutoCAD 2000
 90
        0
280
               0
281
               1
  0
CLASS
  1
DICTIONARYVAR
  2
AcDbDictionaryVar
  3
AutoCAD 2000
 90
        0
280
               0
281
               0
  0
CLASS
  1
RASTERVARIABLES
  2
AcDbRasterVariables
  3
ISM
 90
        0
280
               0
281
               0
  0
CLASS
  1
IMAGEDEF
  2
AcDbRasterImageDef
  3
ISM
 90
        0
280
               0
281
               0
  0
CLASS
  1
IMAGEDEF_REACTOR
  2
AcDbRasterImageDefReactor
  3
ISM
 90
        1
280
               0
281
               0
  0
CLASS
  1
IDBUFFER
  2
AcDbIdBuffer
  3
AutoCAD 2000
 90
        0
280
               0
281
               0
  0
CLASS
  1
SPATIAL_FILTER
  2
AcDbSpatialFilter
  3
AutoCAD 2000
 90
        0
280
               0
281
               0
  0
CLASS
  1
XRECORD
  2
AcDbXrecord
  3
AutoCAD 2000
 90
        0
280
               0
281
               0
  0
CLASS
  1
SORTENTSTABLE
  2
AcDbSortentsTable
  3
AutoCAD 2000
 90
        0
280
               0
281
               0
  0
CLASS
  1
LAYER_INDEX
  2
AcDbLayerIndex
  3
AutoCAD 2000
 90
        0
280
               0
281
               0
  0
CLASS
  1
SPATIAL_INDEX
  2
AcDbSpatialIndex
  3
AutoCAD 2000
 90
        0
280
               0
281
               0
  0
CLASS
  1
OBJECT_PTR
  2
CAseDLPNTableRecord
  3
"ASE-LPNTableRecord"
 90
        1
280
               0
281
               0
  0
CLASS
  1
LAYOUT
  2
AcDbLayout
  3
AutoCAD 2000
 90
        0
280
               0
281
               0
  0
CLASS
  1
PLOTSETTINGS
  2
AcDbPlotSettings
  3
AutoCAD 2000
 90
        0
280
               0
281
               0
  0
CLASS
  1
ACDBDICTIONARYWDFLT
  2
AcDbDictionaryWithDefault
  3
AutoCAD 2000
 90
        0
280
               0
281
               0
  0
CLASS
  1
ACDBPLACEHOLDER
  2
AcDbPlaceHolder
  3
AutoCAD 2000
 90
        0
280
               0
281
               0
  0
CLASS
  1
VBA_PROJECT
  2
AcDbVbaProject
  3
acadvba
 90
        0
280
               0
281
               0
  0
CLASS
  1
WIPEOUT
  2
AcDbWipeout
  3
WipeOut|AutoCAD Express Tool|expresstools@autodesk.com
 90
      127
280
               0
281
               1
  0
CLASS
  1
WIPEOUTVARIABLES
  2
AcDbWipeoutVariables
  3
WipeOut|AutoCAD Express Tool|expresstools@autodesk.com
 90
        0
280
               0
281
               0
  0
CLASS
  1
RTEXT
  2
RText
  3
RText|AutoCAD Express Tool|expresstools@autodesk.com
 90
        0
280
               0
281
               1
  0
CLASS
  1
ARCALIGNEDTEXT
  2
AcDbArcAlignedText
  3
ATEXT|AutoCAD Express Tool|expresstools@autodesk.com
 90
        0
280
               0
281
               1
  0
ENDSEC
  0
SECTION
  2
TABLES
  0
TABLE
  2
VPORT
  5
7
100
AcDbSymbolTable
 70
               1
  0
VPORT
  5
15
100
AcDbSymbolTableRecord
100
AcDbViewportTableRecord
  2
*ACTIVE
 70
               0
 10
0.0
 20
0.0
 11
1.0
 21
1.0
 12
3031.3538964436812
 22
3855.9825000000001
 13
0.0
 23
0.0
 14
1.0
 24
1.0
 15
0.0
 25
0.0
 16
0.0
 26
0.0
 36
1.0
 17
0.0
 27
0.0
 37
0.0
 40
20411.965
 41
0.688564
 42
50.0
 43
0.0
 44
0.0
 50
0.0
 51
0.0
 71
               0
 72
            2000
 73
               1
 74
               1
 75
               0
 76
               0
 77
               0
 78
               0
281
               0
 65
               0
110
0.0
120
0.0
130
0.0
111
1.0
121
0.0
131
0.0
112
0.0
122
1.0
132
0.0
345
0
346
0
 79
               0
146
0.0
  0
ENDTAB
  0
TABLE
  2
LTYPE
  5
4
100
AcDbSymbolTable
 70
              11
  0
LTYPE
  5
11
100
AcDbSymbolTableRecord
100
AcDbLinetypeTableRecord
  2
ByBlock
 70
              64
  3

 72
              65
 73
               0
 40
0.0
  0
LTYPE
  5
12
100
AcDbSymbolTableRecord
100
AcDbLinetypeTableRecord
  2
ByLayer
 70
              64
  3

 72
              65
 73
               0
 40
0.0
  0
LTYPE
  5
13
100
AcDbSymbolTableRecord
100
AcDbLinetypeTableRecord
  2
Continuous
 70
              64
  3
Solid line
 72
              65
 73
               0
 40
0.0
  0
LTYPE
  5
27
100
AcDbSymbolTableRecord
100
AcDbLinetypeTableRecord
  2
STYLE_01
 70
               0
  3

 72
              65
 73
               2
 40
0.4166412353515625
 49
0.208282470703125
 74
               0
 49
-0.2083587646484375
 74
               0
  0
LTYPE
  5
28
100
AcDbSymbolTableRecord
100
AcDbLinetypeTableRecord
  2
STYLE_02
 70
               0
  3

 72
              65
 73
               2
 40
0.694427490234375
 49
0.4860687255859375
 74
               0
 49
-0.2083587646484375
 74
               0
  0
LTYPE
  5
29
100
AcDbSymbolTableRecord
100
AcDbLinetypeTableRecord
  2
STYLE_03
 70
               0
  3

 72
              65
 73
               2
 40
1.25
 49
1.0416412353515625
 74
               0
 49
-0.2083587646484375
 74
               0
  0
LTYPE
  5
2A
100
AcDbSymbolTableRecord
100
AcDbLinetypeTableRecord
  2
STYLE_04
 70
               0
  3

 72
              65
 73
               2
 40
1.5277099609375
 49
1.319427490234375
 74
               0
 49
-0.208282470703125
 74
               0
  0
LTYPE
  5
2B
100
AcDbSymbolTableRecord
100
AcDbLinetypeTableRecord
  2
STYLE_05
 70
               0
  3

 72
              65
 73
               2
 40
0.208282470703125
 49
0.069427490234375
 74
               0
 49
-0.13885498046875
 74
               0
  0
LTYPE
  5
2C
100
AcDbSymbolTableRecord
100
AcDbLinetypeTableRecord
  2
STYLE_06
 70
               0
  3

 72
              65
 73
               4
 40
1.0416412353515625
 49
0.625
 74
               0
 49
-0.208282470703125
 74
               0
 49
0.069427490234375
 74
               0
 49
-0.1389312744140625
 74
               0
  0
LTYPE
  5
2D
100
AcDbSymbolTableRecord
100
AcDbLinetypeTableRecord
  2
STYLE_07
 70
               0
  3

 72
              65
 73
               6
 40
1.875
 49
0.625
 74
               0
 49
-0.208282470703125
 74
               0
 49
0.625
 74
               0
 49
-0.2083587646484375
 74
               0
 49
0.069427490234375
 74
               0
 49
-0.1389312744140625
 74
               0
  0
LTYPE
  5
2E
100
AcDbSymbolTableRecord
100
AcDbLinetypeTableRecord
  2
STYLE_08
 70
               0
  3

 72
              65
 73
               6
 40
1.25
 49
0.625
 74
               0
 49
-0.208282470703125
 74
               0
 49
0.069427490234375
 74
               0
 49
-0.1389312744140625
 74
               0
 49
0.069427490234375
 74
               0
 49
-0.1389312744140625
 74
               0
  0
ENDTAB
  0
TABLE
  2
LAYER
  5
2
100
AcDbSymbolTable
 70
               3
  0
LAYER
  5
14
100
AcDbSymbolTableRecord
100
AcDbLayerTableRecord
  2
0
 70
               0
 62
               7
  6
Continuous
290
               1
370
              -3
390
1D
  0
LAYER
  5
2F
100
AcDbSymbolTableRecord
100
AcDbLayerTableRecord
  2
反射板
 70
               0
 62
               7
  6
Continuous
290
               1
370
              -3
390
1D
  0
LAYER
  5
30
100
AcDbSymbolTableRecord
100
AcDbLayerTableRecord
  2
平面図
 70
               0
 62
               7
  6
Continuous
290
               1
370
              -3
390
1D
  0
ENDTAB
  0
TABLE
  2
STYLE
  5
3
100
AcDbSymbolTable
 70
               2
  0
STYLE
  5
17
100
AcDbSymbolTableRecord
100
AcDbTextStyleTableRecord
  2
Standard
 70
               0
 40
0.0
 41
1.0
 50
0.0
 71
               0
 42
0.0
  3
txt
  4
BIGFONT.SHX
  0
STYLE
  5
26
100
AcDbSymbolTableRecord
100
AcDbTextStyleTableRecord
  2
ＭＳ ゴシック
 70
               0
 40
0.0
 41
1.0
 50
0.0
 71
               0
 42
0.0
  3

  4
ＭＳ ゴシック
1001
ACAD
1000
ＭＳ ゴシック
1071
        0
  0
ENDTAB
  0
TABLE
  2
VIEW
  5
5
100
AcDbSymbolTable
 70
               0
  0
ENDTAB
  0
TABLE
  2
UCS
  5
6
100
AcDbSymbolTable
 70
               0
  0
ENDTAB
  0
TABLE
  2
APPID
  5
8
100
AcDbSymbolTable
 70
               1
  0
APPID
  5
16
100
AcDbSymbolTableRecord
100
AcDbRegAppTableRecord
  2
ACAD
 70
               0
  0
ENDTAB
  0
TABLE
  2
DIMSTYLE
  5
9
100
AcDbSymbolTable
 70
               1
100
AcDbDimStyleTable
 71
               0
  0
DIMSTYLE
105
18
100
AcDbSymbolTableRecord
100
AcDbDimStyleTableRecord
  2
Standard
 70
               0
  3

  4

 40
1.0
 41
0.18
 42
0.0625
 43
0.38
 44
0.18
 45
0.0
 46
0.0
 47
0.0
 48
0.0
 71
               0
 72
               0
 73
               1
 74
               1
 75
               0
 76
               0
 77
               0
 78
               0
 79
               0
140
0.18
141
0.09
142
0.0
143
25.399999999999999
144
1.0
145
0.0
146
1.0
147
0.09
148
0.0
170
               0
171
               2
172
               0
173
               0
174
               0
175
               0
176
               0
177
               0
178
               0
179
               0
271
               4
272
               4
273
               2
274
               2
275
               0
276
               0
277
               2
278
              46
279
               0
280
               0
281
               0
282
               0
283
               1
284
               0
285
               0
286
               0
288
               0
289
               3
340
17
341
0
342
0
343
0
344
0
371
              -2
372
              -2
  0
ENDTAB
  0
TABLE
  2
BLOCK_RECORD
  5
1
100
AcDbSymbolTable
 70
               2
  0
BLOCK_RECORD
  5
A
100
AcDbSymbolTableRecord
100
AcDbBlockTableRecord
  2
*MODEL_SPACE
340
20
  0
BLOCK_RECORD
  5
B
100
AcDbSymbolTableRecord
100
AcDbBlockTableRecord
  2
*PAPER_SPACE
340
21
  0
BLOCK_RECORD
  5
24
100
AcDbSymbolTableRecord
100
AcDbBlockTableRecord
  2
グループ
340
0
102
{BLKREFS
331
23E
102
}
  0
BLOCK_RECORD
  5
25
100
AcDbSymbolTableRecord
100
AcDbBlockTableRecord
  2
グループ-1
340
0
102
{BLKREFS
331
23F
102
}
  0
ENDTAB
  0
ENDSEC
  0
SECTION
  2
BLOCKS
  0
BLOCK
  5
D
100
AcDbEntity
  8
0
390
0
100
AcDbBlockBegin
  2
*MODEL_SPACE
 70
               0
 10
0.0
 20
0.0
 30
0.0
  3
*MODEL_SPACE
  1

  0
ENDBLK
  5
E
100
AcDbEntity
  8
0
390
0
100
AcDbBlockEnd
  0
BLOCK
  5
F
100
AcDbEntity
 67
               1
  8
0
390
0
100
AcDbBlockBegin
  2
*PAPER_SPACE
 70
               0
 10
0.0
 20
0.0
 30
0.0
  3
*PAPER_SPACE
  1

  0
ENDBLK
  5
10
100
AcDbEntity
 67
               1
  8
0
390
0
100
AcDbBlockEnd
  0
BLOCK
  5
31
100
AcDbEntity
  8
反射板
390
0
100
AcDbBlockBegin
  2
グループ
 70
               0
 10
0.0
 20
0.0
 30
0.0
  3
グループ
  1

  0
LINE
  5
32
100
AcDbEntity
  8
0
370
               5
390
0
  6
Continuous
 62
               7
100
AcDbLine
 10
50.0
 20
4200.0
 30
0.0
 11
-4650.0
 21
4200.0
 31
0.0
  0
LINE
  5
33
100
AcDbEntity
  8
0
370
               5
390
0
  6
Continuous
 62
               7
100
AcDbLine
 10
-4650.0
 20
4200.0
 30
0.0
 11
-4650.0
 21
3700.0
 31
0.0
  0
LINE
  5
34
100
AcDbEntity
  8
0
370
               5
390
0
  6
Continuous
 62
               7
100
AcDbLine
 10
-4650.0
 20
3700.0
 30
0.0
 11
50.0
 21
3700.0
 31
0.0
  0
LINE
  5
35
100
AcDbEntity
  8
0
370
               5
390
0
  6
Continuous
 62
               7
100
AcDbLine
 10
-5050.0
 20
3900.0
 30
0.0
 11
-6650.0
 21
-100.0
 31
0.0
  0
LINE
  5
36
100
AcDbEntity
  8
0
370
               5
390
0
  6
Continuous
 62
               7
100
AcDbLine
 10
-6450.0
 20
-100.0
 30
0.0
 11
-5230.0
 21
2110.0
 31
0.0
  0
LINE
  5
37
100
AcDbEntity
  8
0
370
               5
390
0
  6
Continuous
 62
               7
100
AcDbLine
 10
-4850.0
 20
3900.0
 30
0.0
 11
-5230.0
 21
2110.0
 31
0.0
  0
LINE
  5
38
100
AcDbEntity
  8
0
370
               5
390
0
  6
Continuous
 62
               7
100
AcDbLine
 10
50.0
 20
4200.0
 30
0.0
 11
4750.0
 21
4200.0
 31
0.0
  0
LINE
  5
39
100
AcDbEntity
  8
0
370
               5
390
0
  6
Continuous
 62
               7
100
AcDbLine
 10
4750.0
 20
3700.0
 30
0.0
 11
50.0
 21
3700.0
 31
0.0
  0
LINE
  5
3A
100
AcDbEntity
  8
0
370
               5
390
0
  6
Continuous
 62
               7
100
AcDbLine
 10
4750.0
 20
4200.0
 30
0.0
 11
4750.0
 21
3700.0
 31
0.0
  0
LINE
  5
3B
100
AcDbEntity
  8
0
370
               5
390
0
  6
Continuous
 62
               7
100
AcDbLine
 10
5150.0
 20
3900.0
 30
0.0
 11
6750.0
 21
-100.0
 31
0.0
  0
LINE
  5
3C
100
AcDbEntity
  8
0
370
               5
390
0
  6
Continuous
 62
               7
100
AcDbLine
 10
4950.0
 20
3900.0
 30
0.0
 11
5330.0
 21
2110.0
 31
0.0
  0
LINE
  5
3D
100
AcDbEntity
  8
0
370
               5
390
0
  6
Continuous
 62
               7
100
AcDbLine
 10
6550.0
 20
-100.0
 30
0.0
 11
5330.0
 21
2110.0
 31
0.0
  0
LINE
  5
3E
100
AcDbEntity
  8
0
370
               5
390
0
  6
Continuous
 62
               7
100
AcDbLine
 10
-5050.0
 20
3900.0
 30
0.0
 11
-4850.0
 21
3900.0
 31
0.0
  0
LINE
  5
3F
100
AcDbEntity
  8
0
370
               5
390
0
  6
Continuous
 62
               7
100
AcDbLine
 10
-6650.0
 20
-100.0
 30
0.0
 11
-6450.0
 21
-100.0
 31
0.0
  0
LINE
  5
40
100
AcDbEntity
  8
0
370
               5
390
0
  6
Continuous
 62
               7
100
AcDbLine
 10
5150.0
 20
3900.0
 30
0.0
 11
4950.0
 21
3900.0
 31
0.0
  0
LINE
  5
41
100
AcDbEntity
  8
0
370
               5
390
0
  6
Continuous
 62
               7
100
AcDbLine
 10
6750.0
 20
-100.0
 30
0.0
 11
6550.0
 21
-100.0
 31
0.0
  0
ENDBLK
  5
42
100
AcDbEntity
  8
反射板
390
0
100
AcDbBlockEnd
  0
BLOCK
  5
43
100
AcDbEntity
  8
平面図
390
0
100
AcDbBlockBegin
  2
グループ-1
 70
               0
 10
0.0
 20
0.0
 30
0.0
  3
グループ-1
  1

  0
WIPEOUT
  5
44
100
AcDbEntity
  8
0
370
               5
390
0
  6
Continuous
 62
               7
 92
        0
100
AcDbWipeout
 90
        0
 10
3029.3679999999999
 20
11115.298000000001
 30
0.0
 11
16933.339792887367
 21
0.0
 31
0.0
 12
0.0
 22
16933.339792887367
 32
0.0
 13
1.0
 23
1.0
340
0
 70
               7
280
               1
281
              50
282
              50
283
               0
360
0
 71
               2
 91
        5
 14
-0.5
 24
0.5
 14
0.5
 24
0.5
 14
0.5
 24
0.4499999993884472
 14
-0.5
 24
0.4499999993884472
 14
-0.5
 24
0.5
  0
MTEXT
  5
45
100
AcDbEntity
  8
0
390
0
 62
               7
100
AcDbMText
 10
3029.3679999999999
 20
11885.36809484375
 30
0.0
 40
740.8336250000001
 41
0.0
 71
               1
 72
               1
  1
{\H0.8795x;\l高知県立県民文化ホール（グリーンホール）}
 73
               1
 44
0.7828267384257843
  0
LINE
  5
46
100
AcDbEntity
  8
0
370
               5
390
0
  6
Continuous
 62
               7
100
AcDbLine
 10
-10750.0
 20
-1100.0
 30
0.0
 11
10150.0
 21
-1100.0
 31
0.0
  0
LINE
  5
47
100
AcDbEntity
  8
0
370
               5
390
0
  6
Continuous
 62
               7
100
AcDbLine
 10
-10750.0
 20
700.0
 30
0.0
 11
10150.0
 21
700.0
 31
0.0
  0
LINE
  5
48
100
AcDbEntity
  8
0
370
               5
390
0
  6
Continuous
 62
               7
100
AcDbLine
 10
-10750.0
 20
2500.0
 30
0.0
 11
10150.0
 21
2500.0
 31
0.0
  0
LINE
  5
49
100
AcDbEntity
  8
0
370
               5
390
0
  6
Continuous
 62
               7
100
AcDbLine
 10
-10750.0
 20
4300.0
 30
0.0
 11
10150.0
 21
4300.0
 31
0.0
  0
LINE
  5
4A
100
AcDbEntity
  8
0
370
               5
390
0
  6
Continuous
 62
               7
100
AcDbLine
 10
-10750.0
 20
6100.0
 30
0.0
 11
10150.0
 21
6100.0
 31
0.0
  0
LINE
  5
4B
100
AcDbEntity
  8
0
370
               5
390
0
  6
Continuous
 62
               7
100
AcDbLine
 10
-10750.0
 20
-1100.0
 30
0.0
 11
-10750.0
 21
7700.0
 31
0.0
  0
LINE
  5
4C
100
AcDbEntity
  8
0
370
               5
390
0
  6
Continuous
 62
               7
100
AcDbLine
 10
-8950.0
 20
-1100.0
 30
0.0
 11
-8950.0
 21
7700.0
 31
0.0
  0
LINE
  5
4D
100
AcDbEntity
  8
0
370
               5
390
0
  6
Continuous
 62
               7
100
AcDbLine
 10
-7150.0
 20
-1100.0
 30
0.0
 11
-7150.0
 21
7700.0
 31
0.0
  0
LINE
  5
4E
100
AcDbEntity
  8
0
370
               5
390
0
  6
Continuous
 62
               7
100
AcDbLine
 10
-5350.0
 20
-1100.0
 30
0.0
 11
-5350.0
 21
7700.0
 31
0.0
  0
LINE
  5
4F
100
AcDbEntity
  8
0
370
               5
390
0
  6
Continuous
 62
               7
100
AcDbLine
 10
-3550.0
 20
-1100.0
 30
0.0
 11
-3550.0
 21
7700.0
 31
0.0
  0
LINE
  5
50
100
AcDbEntity
  8
0
370
               5
390
0
  6
Continuous
 62
               7
100
AcDbLine
 10
-1750.0
 20
-1100.0
 30
0.0
 11
-1750.0
 21
7700.0
 31
0.0
  0
LINE
  5
51
100
AcDbEntity
  8
0
370
               5
390
0
  6
Continuous
 62
               7
100
AcDbLine
 10
50.0
 20
-1100.0
 30
0.0
 11
50.0
 21
7700.0
 31
0.0
  0
LINE
  5
52
100
AcDbEntity
  8
0
370
               5
390
0
  6
Continuous
 62
               7
100
AcDbLine
 10
1850.0
 20
-1100.0
 30
0.0
 11
1850.0
 21
7700.0
 31
0.0
  0
LINE
  5
53
100
AcDbEntity
  8
0
370
               5
390
0
  6
Continuous
 62
               7
100
AcDbLine
 10
3650.0
 20
-1100.0
 30
0.0
 11
3650.0
 21
7700.0
 31
0.0
  0
LINE
  5
54
100
AcDbEntity
  8
0
370
               5
390
0
  6
Continuous
 62
               7
100
AcDbLine
 10
5450.0
 20
-1100.0
 30
0.0
 11
5450.0
 21
7700.0
 31
0.0
  0
LINE
  5
55
100
AcDbEntity
  8
0
370
               5
390
0
  6
Continuous
 62
               7
100
AcDbLine
 10
7250.0
 20
-1100.0
 30
0.0
 11
7250.0
 21
7700.0
 31
0.0
  0
LINE
  5
56
100
AcDbEntity
  8
0
370
               5
390
0
  6
Continuous
 62
               7
100
AcDbLine
 10
9050.0
 20
-1100.0
 30
0.0
 11
9050.0
 21
7700.0
 31
0.0
  0
LINE
  5
57
100
AcDbEntity
  8
0
370
               5
390
0
  6
Continuous
 62
               7
100
AcDbLine
 10
-10750.0
 20
7000.0
 30
0.0
 11
10150.0
 21
7000.0
 31
0.0
  0
LINE
  5
58
100
AcDbEntity
  8
0
370
               5
390
0
  6
Continuous
 62
               7
100
AcDbLine
 10
9250.0
 20
7350.0
 30
0.0
 11
11700.0
 21
7350.0
 31
0.0
  0
LINE
  5
59
100
AcDbEntity
  8
0
370
               5
390
0
  6
Continuous
 62
               7
100
AcDbLine
 10
11705.0
 20
6900.0
 30
0.0
 11
11705.0
 21
-1000.0
 31
0.0
  0
LINE
  5
5A
100
AcDbEntity
  8
0
370
               5
390
0
  6
Continuous
 62
               7
100
AcDbLine
 10
3650.0
 20
-1100.0
 30
0.0
 11
3650.0
 21
-2100.0
 31
0.0
  0
LINE
  5
5B
100
AcDbEntity
  8
0
370
               5
390
0
  6
Continuous
 62
               7
100
AcDbLine
 10
1850.0
 20
-1100.0
 30
0.0
 11
1850.0
 21
-2100.0
 31
0.0
  0
LINE
  5
5C
100
AcDbEntity
  8
0
370
               5
390
0
  6
Continuous
 62
               7
100
AcDbLine
 10
50.0
 20
-1100.0
 30
0.0
 11
50.0
 21
-2100.0
 31
0.0
  0
LINE
  5
5D
100
AcDbEntity
  8
0
370
               5
390
0
  6
Continuous
 62
               7
100
AcDbLine
 10
-1750.0
 20
-1100.0
 30
0.0
 11
-1750.0
 21
-2100.0
 31
0.0
  0
LINE
  5
5E
100
AcDbEntity
  8
0
370
               5
390
0
  6
Continuous
 62
               7
100
AcDbLine
 10
-3550.0
 20
-1100.0
 30
0.0
 11
-3550.0
 21
-2100.0
 31
0.0
  0
LINE
  5
5F
100
AcDbEntity
  8
0
370
               5
390
0
  6
Continuous
 62
               7
100
AcDbLine
 10
5450.0
 20
-1100.0
 30
0.0
 11
5450.0
 21
-2000.0
 31
0.0
  0
LINE
  5
60
100
AcDbEntity
  8
0
370
               5
390
0
  6
Continuous
 62
               7
100
AcDbLine
 10
3650.0
 20
-2100.0
 30
0.0
 11
-5250.0
 21
-2100.0
 31
0.0
  0
LINE
  5
61
100
AcDbEntity
  8
0
370
               5
390
0
  6
Continuous
 62
               7
100
AcDbLine
 10
-5250.0
 20
-2100.0
 30
0.0
 11
-5250.0
 21
-2400.0
 31
0.0
  0
LINE
  5
62
100
AcDbEntity
  8
0
370
               5
390
0
  6
Continuous
 62
               7
100
AcDbLine
 10
-11600.0
 20
-1500.0
 30
0.0
 11
-11600.0
 21
-1150.0
 31
0.0
  0
LINE
  5
63
100
AcDbEntity
  8
0
370
               5
390
0
  6
Continuous
 62
               7
100
AcDbLine
 10
-11600.0
 20
-1150.0
 30
0.0
 11
-12300.0
 21
-1150.0
 31
0.0
  0
LINE
  5
64
100
AcDbEntity
  8
0
370
               5
390
0
  6
Continuous
 62
               7
100
AcDbLine
 10
-12300.0
 20
-1150.0
 30
0.0
 11
-12300.0
 21
-1850.0
 31
0.0
  0
LINE
  5
65
100
AcDbEntity
  8
0
370
               5
390
0
  6
Continuous
 62
               7
100
AcDbLine
 10
-12300.0
 20
-1850.0
 30
0.0
 11
-11600.0
 21
-1850.0
 31
0.0
  0
LINE
  5
66
100
AcDbEntity
  8
0
370
               5
390
0
  6
Continuous
 62
               7
100
AcDbLine
 10
-11600.0
 20
-1850.0
 30
0.0
 11
-11600.0
 21
-1500.0
 31
0.0
  0
LINE
  5
67
100
AcDbEntity
  8
0
370
               5
390
0
  6
Continuous
 62
               7
100
AcDbLine
 10
-12300.0
 20
-1700.0
 30
0.0
 11
-13300.0
 21
-1700.0
 31
0.0
  0
LINE
  5
68
100
AcDbEntity
  8
0
370
               5
390
0
  6
Continuous
 62
               7
100
AcDbLine
 10
-13300.0
 20
-1700.0
 30
0.0
 11
-13300.0
 21
-1850.0
 31
0.0
  0
LINE
  5
69
100
AcDbEntity
  8
0
370
               5
390
0
  6
Continuous
 62
               7
100
AcDbLine
 10
-13300.0
 20
-1850.0
 30
0.0
 11
-12300.0
 21
-1850.0
 31
0.0
  0
LINE
  5
6A
100
AcDbEntity
  8
0
370
               5
390
0
  6
Continuous
 62
               7
100
AcDbLine
 10
-12350.0
 20
-1850.0
 30
0.0
 11
-12350.0
 21
-8450.0
 31
0.0
  0
LINE
  5
6B
100
AcDbEntity
  8
0
370
               5
390
0
  6
Continuous
 62
               7
100
AcDbLine
 10
-12350.0
 20
-8450.0
 30
0.0
 11
-11050.0
 21
-8450.0
 31
0.0
  0
LINE
  5
6C
100
AcDbEntity
  8
0
370
               5
390
0
  6
Continuous
 62
               7
100
AcDbLine
 10
-12150.0
 20
-1850.0
 30
0.0
 11
-12150.0
 21
-6650.0
 31
0.0
  0
LINE
  5
6D
100
AcDbEntity
  8
0
370
               5
390
0
  6
Continuous
 62
               7
100
AcDbLine
 10
-12150.0
 20
-6650.0
 30
0.0
 11
-11600.0
 21
-6650.0
 31
0.0
  0
LINE
  5
6E
100
AcDbEntity
  8
0
370
               5
390
0
  6
Continuous
 62
               7
100
AcDbLine
 10
11705.0
 20
7100.0
 30
0.0
 11
11705.0
 21
6950.0
 31
0.0
  0
LINE
  5
6F
100
AcDbEntity
  8
0
370
               5
390
0
  6
Continuous
 62
               7
100
AcDbLine
 10
11705.0
 20
6950.0
 30
0.0
 11
11855.0
 21
6950.0
 31
0.0
  0
LINE
  5
70
100
AcDbEntity
  8
0
370
               5
390
0
  6
Continuous
 62
               7
100
AcDbLine
 10
11855.0
 20
6950.0
 30
0.0
 11
11855.0
 21
7100.0
 31
0.0
  0
POLYLINE
  5
71
102
{ACAD_REACTORS
330
77
102
}
100
AcDbEntity
  8
0
370
               5
390
0
  6
Continuous
 62
               7
100
AcDb2dPolyline
 66
               1
 10
0.0
 20
0.0
 30
0.0
 70
               1
 75
               5
  0
VERTEX
  5
72
100
AcDbEntity
  8
0
370
               5
390
0
  6
Continuous
 62
               7
100
AcDbVertex
100
AcDb2dVertex
 10
11705.0
 20
7100.0
 30
0.0
  0
VERTEX
  5
73
100
AcDbEntity
  8
0
370
               5
390
0
  6
Continuous
 62
               7
100
AcDbVertex
100
AcDb2dVertex
 10
11705.0
 20
6950.0
 30
0.0
  0
VERTEX
  5
74
100
AcDbEntity
  8
0
370
               5
390
0
  6
Continuous
 62
               7
100
AcDbVertex
100
AcDb2dVertex
 10
11855.0
 20
6950.0
 30
0.0
  0
VERTEX
  5
75
100
AcDbEntity
  8
0
370
               5
390
0
  6
Continuous
 62
               7
100
AcDbVertex
100
AcDb2dVertex
 10
11855.0
 20
7100.0
 30
0.0
  0
SEQEND
  5
76
100
AcDbEntity
  8
0
370
               5
390
0
  6
Continuous
 62
               7
  0
HATCH
  5
77
100
AcDbEntity
  8
0
370
               0
390
0
  6
Continuous
 62
             255
100
AcDbHatch
 10
0.0
 20
0.0
 30
0.0
210
0.0
220
0.0
230
1.0
  2
SOLID
 70
               1
 71
               1
 91
        1
 92
        1
 93
        4
 72
               1
 10
11705.0
 20
7100.0
 11
11705.0
 21
6950.0
 72
               1
 10
11705.0
 20
6950.0
 11
11855.0
 21
6950.0
 72
               1
 10
11855.0
 20
6950.0
 11
11855.0
 21
7100.0
 72
               1
 10
11855.0
 20
7100.0
 11
11705.0
 21
7100.0
 97
        1
330
71
 75
               0
 76
               1
 98
        1
 10
0.0
 20
0.0
  0
LINE
  5
78
100
AcDbEntity
  8
0
370
               5
390
0
  6
Continuous
 62
               7
100
AcDbLine
 10
11705.0
 20
6950.0
 30
0.0
 11
11705.0
 21
6900.0
 31
0.0
  0
LINE
  5
79
100
AcDbEntity
  8
0
370
               5
390
0
  6
Continuous
 62
               7
100
AcDbLine
 10
10050.0
 20
6700.0
 30
0.0
 11
12550.0
 21
6700.0
 31
0.0
  0
LINE
  5
7A
100
AcDbEntity
  8
0
370
               5
390
0
  6
Continuous
 62
               7
100
AcDbLine
 10
10050.0
 20
6200.0
 30
0.0
 11
12550.0
 21
6200.0
 31
0.0
  0
LINE
  5
7B
100
AcDbEntity
  8
0
370
               5
390
0
  6
Continuous
 62
               7
100
AcDbLine
 10
10050.0
 20
5700.0
 30
0.0
 11
12550.0
 21
5700.0
 31
0.0
  0
LINE
  5
7C
100
AcDbEntity
  8
0
370
               5
390
0
  6
Continuous
 62
               7
100
AcDbLine
 10
10050.0
 20
4900.0
 30
0.0
 11
12550.0
 21
4900.0
 31
0.0
  0
ARC
  5
7D
100
AcDbEntity
  8
0
370
               5
390
0
  6
Continuous
 62
               7
100
AcDbCircle
 10
12505.0
 20
4550.0
 30
0.0
 40
50.0
100
AcDbArc
 50
270.0
 51
0.0
  0
SPLINE
  5
7E
100
AcDbEntity
  8
0
370
               5
390
0
  6
Continuous
 62
               7
100
AcDbSpline
210
0.0
220
0.0
230
1.0
 70
               8
 71
               2
 72
               8
 73
               5
 74
               0
 42
0.000001
 43
0.000001
 40
0.0
 40
0.0
 40
0.0
 40
1.0
 40
2.0
 40
3.0
 40
3.0
 40
3.0
 10
12450.0
 20
4545.0
 30
0.0
 10
12450.0
 20
4532.942
 30
0.0
 10
12464.737000000001
 20
4512.0569999999998
 30
0.0
 10
12490.262000000001
 20
4500.0
 30
0.0
 10
12505.0
 20
4500.0
 30
0.0
  0
ARC
  5
7F
100
AcDbEntity
  8
0
370
               5
390
0
  6
Continuous
 62
               7
100
AcDbCircle
 10
12395.0
 20
4545.0
 30
0.0
 40
55.0
100
AcDbArc
 50
0.0
 51
90.0
  0
SPLINE
  5
80
100
AcDbEntity
  8
0
370
               5
390
0
  6
Continuous
 62
               7
100
AcDbSpline
210
0.0
220
0.0
230
1.0
 70
               8
 71
               2
 72
               8
 73
               5
 74
               0
 42
0.000001
 43
0.000001
 40
0.0
 40
0.0
 40
0.0
 40
1.0
 40
2.0
 40
3.0
 40
3.0
 40
3.0
 10
12395.0
 20
4600.0
 30
0.0
 10
12384.282000000001
 20
4600.0
 30
0.0
 10
12365.717000000001
 20
4586.6019999999999
 30
0.0
 10
12355.0
 20
4563.3969999999999
 30
0.0
 10
12355.0
 20
4550.0
 30
0.0
  0
SPLINE
  5
81
100
AcDbEntity
  8
0
370
               5
390
0
  6
Continuous
 62
               7
100
AcDbSpline
210
0.0
220
0.0
230
1.0
 70
               8
 71
               2
 72
               8
 73
               5
 74
               0
 42
0.000001
 43
0.000001
 40
0.0
 40
0.0
 40
0.0
 40
1.0
 40
2.0
 40
3.0
 40
3.0
 40
3.0
 10
12300.0
 20
4500.0
 30
0.0
 10
12314.737000000001
 20
4500.0
 30
0.0
 10
12340.262000000001
 20
4513.3969999999999
 30
0.0
 10
12355.0
 20
4536.6019999999999
 30
0.0
 10
12355.0
 20
4550.0
 30
0.0
  0
ARC
  5
82
100
AcDbEntity
  8
0
370
               5
390
0
  6
Continuous
 62
               7
100
AcDbCircle
 10
12300.0
 20
4550.0
 30
0.0
 40
50.0
100
AcDbArc
 50
180.0
 51
270.0
  0
ARC
  5
83
100
AcDbEntity
  8
0
370
               5
390
0
  6
Continuous
 62
               7
100
AcDbCircle
 10
12200.0
 20
4550.0
 30
0.0
 40
50.0
100
AcDbArc
 50
0.0
 51
90.0
  0
ARC
  5
84
100
AcDbEntity
  8
0
370
               5
390
0
  6
Continuous
 62
               7
100
AcDbCircle
 10
12200.0
 20
4550.0
 30
0.0
 40
50.0
100
AcDbArc
 50
90.0
 51
180.0
  0
ARC
  5
85
100
AcDbEntity
  8
0
370
               5
390
0
  6
Continuous
 62
               7
100
AcDbCircle
 10
12100.0
 20
4550.0
 30
0.0
 40
50.0
100
AcDbArc
 50
270.0
 51
0.0
  0
ARC
  5
86
100
AcDbEntity
  8
0
370
               5
390
0
  6
Continuous
 62
               7
100
AcDbCircle
 10
12100.0
 20
4550.0
 30
0.0
 40
50.0
100
AcDbArc
 50
180.0
 51
270.0
  0
SPLINE
  5
87
100
AcDbEntity
  8
0
370
               5
390
0
  6
Continuous
 62
               7
100
AcDbSpline
210
0.0
220
0.0
230
1.0
 70
               8
 71
               2
 72
               8
 73
               5
 74
               0
 42
0.000001
 43
0.000001
 40
0.0
 40
0.0
 40
0.0
 40
1.0
 40
2.0
 40
3.0
 40
3.0
 40
3.0
 10
12050.0
 20
4550.0
 30
0.0
 10
12050.0
 20
4563.3969999999999
 30
0.0
 10
12035.262000000001
 20
4586.6019999999999
 30
0.0
 10
12009.737000000001
 20
4600.0
 30
0.0
 10
11995.0
 20
4600.0
 30
0.0
  0
SPLINE
  5
88
100
AcDbEntity
  8
0
370
               5
390
0
  6
Continuous
 62
               7
100
AcDbSpline
210
0.0
220
0.0
230
1.0
 70
               8
 71
               2
 72
               8
 73
               5
 74
               0
 42
0.000001
 43
0.000001
 40
0.0
 40
0.0
 40
0.0
 40
1.0
 40
2.0
 40
3.0
 40
3.0
 40
3.0
 10
11995.0
 20
4600.0
 30
0.0
 10
11982.942000000001
 20
4600.0
 30
0.0
 10
11962.057000000001
 20
4586.6019999999999
 30
0.0
 10
11950.0
 20
4563.3969999999999
 30
0.0
 10
11950.0
 20
4550.0
 30
0.0
  0
ARC
  5
89
100
AcDbEntity
  8
0
370
               5
390
0
  6
Continuous
 62
               7
100
AcDbCircle
 10
11900.0
 20
4550.0
 30
0.0
 40
50.0
100
AcDbArc
 50
270.0
 51
0.0
  0
ARC
  5
8A
100
AcDbEntity
  8
0
370
               5
390
0
  6
Continuous
 62
               7
100
AcDbCircle
 10
11900.0
 20
4550.0
 30
0.0
 40
50.0
100
AcDbArc
 50
180.0
 51
270.0
  0
SPLINE
  5
8B
100
AcDbEntity
  8
0
370
               5
390
0
  6
Continuous
 62
               7
100
AcDbSpline
210
0.0
220
0.0
230
1.0
 70
               8
 71
               2
 72
               8
 73
               5
 74
               0
 42
0.000001
 43
0.000001
 40
0.0
 40
0.0
 40
0.0
 40
1.0
 40
2.0
 40
3.0
 40
3.0
 40
3.0
 10
11850.0
 20
4550.0
 30
0.0
 10
11850.0
 20
4563.3969999999999
 30
0.0
 10
11835.262000000001
 20
4586.6019999999999
 30
0.0
 10
11809.737000000001
 20
4600.0
 30
0.0
 10
11795.0
 20
4600.0
 30
0.0
  0
SPLINE
  5
8C
100
AcDbEntity
  8
0
370
               5
390
0
  6
Continuous
 62
               7
100
AcDbSpline
210
0.0
220
0.0
230
1.0
 70
               8
 71
               2
 72
               8
 73
               5
 74
               0
 42
0.000001
 43
0.000001
 40
0.0
 40
0.0
 40
0.0
 40
1.0
 40
2.0
 40
3.0
 40
3.0
 40
3.0
 10
11795.0
 20
4600.0
 30
0.0
 10
11784.282000000001
 20
4600.0
 30
0.0
 10
11765.717000000001
 20
4586.6019999999999
 30
0.0
 10
11755.0
 20
4563.3969999999999
 30
0.0
 10
11755.0
 20
4550.0
 30
0.0
  0
ARC
  5
8D
100
AcDbEntity
  8
0
370
               5
390
0
  6
Continuous
 62
               7
100
AcDbCircle
 10
11705.0
 20
4550.0
 30
0.0
 40
50.0
100
AcDbArc
 50
270.0
 51
0.0
  0
SPLINE
  5
8E
100
AcDbEntity
  8
0
370
               5
390
0
  6
Continuous
 62
               7
100
AcDbSpline
210
0.0
220
0.0
230
1.0
 70
               8
 71
               2
 72
               8
 73
               5
 74
               0
 42
0.000001
 43
0.000001
 40
0.0
 40
0.0
 40
0.0
 40
1.0
 40
2.0
 40
3.0
 40
3.0
 40
3.0
 10
11650.0
 20
4550.0
 30
0.0
 10
11650.0
 20
4536.6019999999999
 30
0.0
 10
11664.737000000001
 20
4513.3969999999999
 30
0.0
 10
11690.262000000001
 20
4500.0
 30
0.0
 10
11705.0
 20
4500.0
 30
0.0
  0
SPLINE
  5
8F
100
AcDbEntity
  8
0
370
               5
390
0
  6
Continuous
 62
               7
100
AcDbSpline
210
0.0
220
0.0
230
1.0
 70
               8
 71
               2
 72
               8
 73
               5
 74
               0
 42
0.000001
 43
0.000001
 40
0.0
 40
0.0
 40
0.0
 40
1.0
 40
2.0
 40
3.0
 40
3.0
 40
3.0
 10
11650.0
 20
4550.0
 30
0.0
 10
11650.0
 20
4563.3969999999999
 30
0.0
 10
11635.262000000001
 20
4586.6019999999999
 30
0.0
 10
11609.737000000001
 20
4600.0
 30
0.0
 10
11595.0
 20
4600.0
 30
0.0
  0
SPLINE
  5
90
100
AcDbEntity
  8
0
370
               5
390
0
  6
Continuous
 62
               7
100
AcDbSpline
210
0.0
220
0.0
230
1.0
 70
               8
 71
               2
 72
               8
 73
               5
 74
               0
 42
0.000001
 43
0.000001
 40
0.0
 40
0.0
 40
0.0
 40
1.0
 40
2.0
 40
3.0
 40
3.0
 40
3.0
 10
11595.0
 20
4600.0
 30
0.0
 10
11582.942000000001
 20
4600.0
 30
0.0
 10
11562.057000000001
 20
4586.6019999999999
 30
0.0
 10
11550.0
 20
4563.3969999999999
 30
0.0
 10
11550.0
 20
4550.0
 30
0.0
  0
ARC
  5
91
100
AcDbEntity
  8
0
370
               5
390
0
  6
Continuous
 62
               7
100
AcDbCircle
 10
11500.0
 20
4550.0
 30
0.0
 40
50.0
100
AcDbArc
 50
270.0
 51
0.0
  0
SPLINE
  5
92
100
AcDbEntity
  8
0
370
               5
390
0
  6
Continuous
 62
               7
100
AcDbSpline
210
0.0
220
0.0
230
1.0
 70
               8
 71
               2
 72
               8
 73
               5
 74
               0
 42
0.000001
 43
0.000001
 40
0.0
 40
0.0
 40
0.0
 40
1.0
 40
2.0
 40
3.0
 40
3.0
 40
3.0
 10
11455.0
 20
4550.0
 30
0.0
 10
11455.0
 20
4536.6019999999999
 30
0.0
 10
11467.057000000001
 20
4513.3969999999999
 30
0.0
 10
11487.942000000001
 20
4500.0
 30
0.0
 10
11500.0
 20
4500.0
 30
0.0
  0
SPLINE
  5
93
100
AcDbEntity
  8
0
370
               5
390
0
  6
Continuous
 62
               7
100
AcDbSpline
210
0.0
220
0.0
230
1.0
 70
               8
 71
               2
 72
               8
 73
               5
 74
               0
 42
0.000001
 43
0.000001
 40
0.0
 40
0.0
 40
0.0
 40
1.0
 40
2.0
 40
3.0
 40
3.0
 40
3.0
 10
11455.0
 20
4550.0
 30
0.0
 10
11455.0
 20
4563.3969999999999
 30
0.0
 10
11440.262000000001
 20
4586.6019999999999
 30
0.0
 10
11414.737000000001
 20
4600.0
 30
0.0
 10
11400.0
 20
4600.0
 30
0.0
  0
ARC
  5
94
100
AcDbEntity
  8
0
370
               5
390
0
  6
Continuous
 62
               7
100
AcDbCircle
 10
11400.0
 20
4550.0
 30
0.0
 40
50.0
100
AcDbArc
 50
90.0
 51
180.0
  0
ARC
  5
95
100
AcDbEntity
  8
0
370
               5
390
0
  6
Continuous
 62
               7
100
AcDbCircle
 10
11300.0
 20
4550.0
 30
0.0
 40
50.0
100
AcDbArc
 50
270.0
 51
0.0
  0
ARC
  5
96
100
AcDbEntity
  8
0
370
               5
390
0
  6
Continuous
 62
               7
100
AcDbCircle
 10
11300.0
 20
4550.0
 30
0.0
 40
50.0
100
AcDbArc
 50
180.0
 51
270.0
  0
SPLINE
  5
97
100
AcDbEntity
  8
0
370
               5
390
0
  6
Continuous
 62
               7
100
AcDbSpline
210
0.0
220
0.0
230
1.0
 70
               8
 71
               2
 72
               8
 73
               5
 74
               0
 42
0.000001
 43
0.000001
 40
0.0
 40
0.0
 40
0.0
 40
1.0
 40
2.0
 40
3.0
 40
3.0
 40
3.0
 10
11250.0
 20
4550.0
 30
0.0
 10
11250.0
 20
4563.3969999999999
 30
0.0
 10
11233.923000000001
 20
4586.6019999999999
 30
0.0
 10
11206.076000000001
 20
4600.0
 30
0.0
 10
11190.0
 20
4600.0
 30
0.0
  0
SPLINE
  5
98
100
AcDbEntity
  8
0
370
               5
390
0
  6
Continuous
 62
               7
100
AcDbSpline
210
0.0
220
0.0
230
1.0
 70
               8
 71
               2
 72
               8
 73
               5
 74
               0
 42
0.000001
 43
0.000001
 40
0.0
 40
0.0
 40
0.0
 40
1.0
 40
2.0
 40
3.0
 40
3.0
 40
3.0
 10
11190.0
 20
4600.0
 30
0.0
 10
11179.282000000001
 20
4600.0
 30
0.0
 10
11160.717000000001
 20
4586.6019999999999
 30
0.0
 10
11150.0
 20
4563.3969999999999
 30
0.0
 10
11150.0
 20
4550.0
 30
0.0
  0
ARC
  5
99
100
AcDbEntity
  8
0
370
               5
390
0
  6
Continuous
 62
               7
100
AcDbCircle
 10
11100.0
 20
4550.0
 30
0.0
 40
50.0
100
AcDbArc
 50
270.0
 51
0.0
  0
ARC
  5
9A
100
AcDbEntity
  8
0
370
               5
390
0
  6
Continuous
 62
               7
100
AcDbCircle
 10
11100.0
 20
4550.0
 30
0.0
 40
50.0
100
AcDbArc
 50
180.0
 51
270.0
  0
SPLINE
  5
9B
100
AcDbEntity
  8
0
370
               5
390
0
  6
Continuous
 62
               7
100
AcDbSpline
210
0.0
220
0.0
230
1.0
 70
               8
 71
               2
 72
               8
 73
               5
 74
               0
 42
0.000001
 43
0.000001
 40
0.0
 40
0.0
 40
0.0
 40
1.0
 40
2.0
 40
3.0
 40
3.0
 40
3.0
 10
11050.0
 20
4550.0
 30
0.0
 10
11050.0
 20
4563.3969999999999
 30
0.0
 10
11035.262000000001
 20
4586.6019999999999
 30
0.0
 10
11009.737000000001
 20
4600.0
 30
0.0
 10
10995.0
 20
4600.0
 30
0.0
  0
SPLINE
  5
9C
100
AcDbEntity
  8
0
370
               5
390
0
  6
Continuous
 62
               7
100
AcDbSpline
210
0.0
220
0.0
230
1.0
 70
               8
 71
               2
 72
               8
 73
               5
 74
               0
 42
0.000001
 43
0.000001
 40
0.0
 40
0.0
 40
0.0
 40
1.0
 40
2.0
 40
3.0
 40
3.0
 40
3.0
 10
10995.0
 20
4600.0
 30
0.0
 10
10982.942000000001
 20
4600.0
 30
0.0
 10
10962.057000000001
 20
4586.6019999999999
 30
0.0
 10
10950.0
 20
4563.3969999999999
 30
0.0
 10
10950.0
 20
4550.0
 30
0.0
  0
ARC
  5
9D
100
AcDbEntity
  8
0
370
               5
390
0
  6
Continuous
 62
               7
100
AcDbCircle
 10
10900.0
 20
4550.0
 30
0.0
 40
50.0
100
AcDbArc
 50
270.0
 51
0.0
  0
ARC
  5
9E
100
AcDbEntity
  8
0
370
               5
390
0
  6
Continuous
 62
               7
100
AcDbCircle
 10
10900.0
 20
4550.0
 30
0.0
 40
50.0
100
AcDbArc
 50
180.0
 51
270.0
  0
SPLINE
  5
9F
100
AcDbEntity
  8
0
370
               5
390
0
  6
Continuous
 62
               7
100
AcDbSpline
210
0.0
220
0.0
230
1.0
 70
               8
 71
               2
 72
               8
 73
               5
 74
               0
 42
0.000001
 43
0.000001
 40
0.0
 40
0.0
 40
0.0
 40
1.0
 40
2.0
 40
3.0
 40
3.0
 40
3.0
 10
10850.0
 20
4550.0
 30
0.0
 10
10850.0
 20
4562.0569999999998
 30
0.0
 10
10835.262000000001
 20
4582.942
 30
0.0
 10
10809.737000000001
 20
4595.0
 30
0.0
 10
10795.0
 20
4595.0
 30
0.0
  0
ARC
  5
A0
100
AcDbEntity
  8
0
370
               5
390
0
  6
Continuous
 62
               7
100
AcDbCircle
 10
10795.0
 20
4550.0
 30
0.0
 40
45.0
100
AcDbArc
 50
90.0
 51
180.0
  0
SPLINE
  5
A1
100
AcDbEntity
  8
0
370
               5
390
0
  6
Continuous
 62
               7
100
AcDbSpline
210
0.0
220
0.0
230
1.0
 70
               8
 71
               2
 72
               8
 73
               5
 74
               0
 42
0.000001
 43
0.000001
 40
0.0
 40
0.0
 40
0.0
 40
1.0
 40
2.0
 40
3.0
 40
3.0
 40
3.0
 10
10695.0
 20
4500.0
 30
0.0
 10
10709.737000000001
 20
4500.0
 30
0.0
 10
10735.262000000001
 20
4513.3969999999999
 30
0.0
 10
10750.0
 20
4536.6019999999999
 30
0.0
 10
10750.0
 20
4550.0
 30
0.0
  0
SPLINE
  5
A2
100
AcDbEntity
  8
0
370
               5
390
0
  6
Continuous
 62
               7
100
AcDbSpline
210
0.0
220
0.0
230
1.0
 70
               8
 71
               2
 72
               8
 73
               5
 74
               0
 42
0.000001
 43
0.000001
 40
0.0
 40
0.0
 40
0.0
 40
1.0
 40
2.0
 40
3.0
 40
3.0
 40
3.0
 10
10650.0
 20
4550.0
 30
0.0
 10
10650.0
 20
4536.6019999999999
 30
0.0
 10
10662.057000000001
 20
4513.3969999999999
 30
0.0
 10
10682.942000000001
 20
4500.0
 30
0.0
 10
10695.0
 20
4500.0
 30
0.0
  0
SPLINE
  5
A3
100
AcDbEntity
  8
0
370
               5
390
0
  6
Continuous
 62
               7
100
AcDbSpline
210
0.0
220
0.0
230
1.0
 70
               8
 71
               2
 72
               8
 73
               5
 74
               0
 42
0.000001
 43
0.000001
 40
0.0
 40
0.0
 40
0.0
 40
1.0
 40
2.0
 40
3.0
 40
3.0
 40
3.0
 10
10650.0
 20
4550.0
 30
0.0
 10
10650.0
 20
4562.0569999999998
 30
0.0
 10
10635.262000000001
 20
4582.942
 30
0.0
 10
10609.737000000001
 20
4595.0
 30
0.0
 10
10595.0
 20
4595.0
 30
0.0
  0
ARC
  5
A4
100
AcDbEntity
  8
0
370
               5
390
0
  6
Continuous
 62
               7
100
AcDbCircle
 10
10595.0
 20
4550.0
 30
0.0
 40
45.0
100
AcDbArc
 50
90.0
 51
180.0
  0
ARC
  5
A5
100
AcDbEntity
  8
0
370
               5
390
0
  6
Continuous
 62
               7
100
AcDbCircle
 10
10500.0
 20
4550.0
 30
0.0
 40
50.0
100
AcDbArc
 50
270.0
 51
0.0
  0
ARC
  5
A6
100
AcDbEntity
  8
0
370
               5
390
0
  6
Continuous
 62
               7
100
AcDbCircle
 10
10500.0
 20
4550.0
 30
0.0
 40
50.0
100
AcDbArc
 50
180.0
 51
270.0
  0
SPLINE
  5
A7
100
AcDbEntity
  8
0
370
               5
390
0
  6
Continuous
 62
               7
100
AcDbSpline
210
0.0
220
0.0
230
1.0
 70
               8
 71
               2
 72
               8
 73
               5
 74
               0
 42
0.000001
 43
0.000001
 40
0.0
 40
0.0
 40
0.0
 40
1.0
 40
2.0
 40
3.0
 40
3.0
 40
3.0
 10
10450.0
 20
4550.0
 30
0.0
 10
10450.0
 20
4562.0569999999998
 30
0.0
 10
10435.262000000001
 20
4582.942
 30
0.0
 10
10409.737000000001
 20
4595.0
 30
0.0
 10
10395.0
 20
4595.0
 30
0.0
  0
ARC
  5
A8
100
AcDbEntity
  8
0
370
               5
390
0
  6
Continuous
 62
               7
100
AcDbCircle
 10
10395.0
 20
4550.0
 30
0.0
 40
45.0
100
AcDbArc
 50
90.0
 51
180.0
  0
ARC
  5
A9
100
AcDbEntity
  8
0
370
               5
390
0
  6
Continuous
 62
               7
100
AcDbCircle
 10
10300.0
 20
4550.0
 30
0.0
 40
50.0
100
AcDbArc
 50
270.0
 51
0.0
  0
ARC
  5
AA
100
AcDbEntity
  8
0
370
               5
390
0
  6
Continuous
 62
               7
100
AcDbCircle
 10
10300.0
 20
4550.0
 30
0.0
 40
50.0
100
AcDbArc
 50
180.0
 51
270.0
  0
SPLINE
  5
AB
100
AcDbEntity
  8
0
370
               5
390
0
  6
Continuous
 62
               7
100
AcDbSpline
210
0.0
220
0.0
230
1.0
 70
               8
 71
               2
 72
               8
 73
               5
 74
               0
 42
0.000001
 43
0.000001
 40
0.0
 40
0.0
 40
0.0
 40
1.0
 40
2.0
 40
3.0
 40
3.0
 40
3.0
 10
10250.0
 20
4550.0
 30
0.0
 10
10250.0
 20
4562.0569999999998
 30
0.0
 10
10236.602000000001
 20
4582.942
 30
0.0
 10
10213.397000000001
 20
4595.0
 30
0.0
 10
10200.0
 20
4595.0
 30
0.0
  0
SPLINE
  5
AC
100
AcDbEntity
  8
0
370
               5
390
0
  6
Continuous
 62
               7
100
AcDbSpline
210
0.0
220
0.0
230
1.0
 70
               8
 71
               2
 72
               8
 73
               5
 74
               0
 42
0.000001
 43
0.000001
 40
0.0
 40
0.0
 40
0.0
 40
1.0
 40
2.0
 40
3.0
 40
3.0
 40
3.0
 10
10200.0
 20
4595.0
 30
0.0
 10
10186.602000000001
 20
4595.0
 30
0.0
 10
10163.397000000001
 20
4582.942
 30
0.0
 10
10150.0
 20
4562.0569999999998
 30
0.0
 10
10150.0
 20
4550.0
 30
0.0
  0
ARC
  5
AD
100
AcDbEntity
  8
0
370
               5
390
0
  6
Continuous
 62
               7
100
AcDbCircle
 10
10100.0
 20
4550.0
 30
0.0
 40
50.0
100
AcDbArc
 50
270.0
 51
0.0
  0
ARC
  5
AE
100
AcDbEntity
  8
0
370
               5
390
0
  6
Continuous
 62
               7
100
AcDbCircle
 10
10100.0
 20
4550.0
 30
0.0
 40
50.0
100
AcDbArc
 50
180.0
 51
270.0
  0
LINE
  5
AF
100
AcDbEntity
  8
0
370
               5
390
0
  6
Continuous
 62
               7
100
AcDbLine
 10
10050.0
 20
4000.0
 30
0.0
 11
12550.0
 21
4000.0
 31
0.0
  0
LINE
  5
B0
100
AcDbEntity
  8
0
370
               5
390
0
  6
Continuous
 62
               7
100
AcDbLine
 10
10050.0
 20
3550.0
 30
0.0
 11
12550.0
 21
3550.0
 31
0.0
  0
LINE
  5
B1
100
AcDbEntity
  8
0
370
               5
390
0
  6
Continuous
 62
               7
100
AcDbLine
 10
10050.0
 20
3250.0
 30
0.0
 11
12550.0
 21
3250.0
 31
0.0
  0
LINE
  5
B2
100
AcDbEntity
  8
0
370
               5
390
0
  6
Continuous
 62
               7
100
AcDbLine
 10
10050.0
 20
2900.0
 30
0.0
 11
12550.0
 21
2900.0
 31
0.0
  0
LINE
  5
B3
100
AcDbEntity
  8
0
370
               5
390
0
  6
Continuous
 62
               7
100
AcDbLine
 10
10050.0
 20
2450.0
 30
0.0
 11
12550.0
 21
2450.0
 31
0.0
  0
LINE
  5
B4
100
AcDbEntity
  8
0
370
               5
390
0
  6
Continuous
 62
               7
100
AcDbLine
 10
9950.0
 20
2500.0
 30
0.0
 11
9950.0
 21
2050.0
 31
0.0
  0
SPLINE
  5
B5
100
AcDbEntity
  8
0
370
               5
390
0
  6
Continuous
 62
               7
100
AcDbSpline
210
0.0
220
0.0
230
1.0
 70
               8
 71
               2
 72
               8
 73
               5
 74
               0
 42
0.000001
 43
0.000001
 40
0.0
 40
0.0
 40
0.0
 40
1.0
 40
2.0
 40
3.0
 40
3.0
 40
3.0
 10
10052.0
 20
2050.0
 30
0.0
 10
10052.0
 20
2036.6020000000001
 30
0.0
 10
10065.933000000001
 20
2013.3969999999999
 30
0.0
 10
10090.066000000001
 20
2000.0
 30
0.0
 10
10104.0
 20
2000.0
 30
0.0
  0
SPLINE
  5
B6
100
AcDbEntity
  8
0
370
               5
390
0
  6
Continuous
 62
               7
100
AcDbSpline
210
0.0
220
0.0
230
1.0
 70
               8
 71
               2
 72
               8
 73
               5
 74
               0
 42
0.000001
 43
0.000001
 40
0.0
 40
0.0
 40
0.0
 40
1.0
 40
2.0
 40
3.0
 40
3.0
 40
3.0
 10
10104.0
 20
2000.0
 30
0.0
 10
10115.789000000001
 20
2000.0
 30
0.0
 10
10136.210000000001
 20
2013.3969999999999
 30
0.0
 10
10148.0
 20
2036.6020000000001
 30
0.0
 10
10148.0
 20
2050.0
 30
0.0
  0
SPLINE
  5
B7
100
AcDbEntity
  8
0
370
               5
390
0
  6
Continuous
 62
               7
100
AcDbSpline
210
0.0
220
0.0
230
1.0
 70
               8
 71
               2
 72
               8
 73
               5
 74
               0
 42
0.000001
 43
0.000001
 40
0.0
 40
0.0
 40
0.0
 40
1.0
 40
2.0
 40
3.0
 40
3.0
 40
3.0
 10
10198.0
 20
2098.0
 30
0.0
 10
10184.602000000001
 20
2098.0
 30
0.0
 10
10161.397000000001
 20
2085.1379999999999
 30
0.0
 10
10148.0
 20
2062.8609999999999
 30
0.0
 10
10148.0
 20
2050.0
 30
0.0
  0
SPLINE
  5
B8
100
AcDbEntity
  8
0
370
               5
390
0
  6
Continuous
 62
               7
100
AcDbSpline
210
0.0
220
0.0
230
1.0
 70
               8
 71
               2
 72
               8
 73
               5
 74
               0
 42
0.000001
 43
0.000001
 40
0.0
 40
0.0
 40
0.0
 40
1.0
 40
2.0
 40
3.0
 40
3.0
 40
3.0
 10
10252.0
 20
2050.0
 30
0.0
 10
10252.0
 20
2062.8609999999999
 30
0.0
 10
10237.530000000001
 20
2085.1379999999999
 30
0.0
 10
10212.469000000001
 20
2098.0
 30
0.0
 10
10198.0
 20
2098.0
 30
0.0
  0
ARC
  5
B9
100
AcDbEntity
  8
0
370
               5
390
0
  6
Continuous
 62
               7
100
AcDbCircle
 10
10300.0
 20
2050.0
 30
0.0
 40
48.0
100
AcDbArc
 50
180.0
 51
270.0
  0
ARC
  5
BA
100
AcDbEntity
  8
0
370
               5
390
0
  6
Continuous
 62
               7
100
AcDbCircle
 10
10300.0
 20
2052.0
 30
0.0
 40
50.0
100
AcDbArc
 50
270.0
 51
0.0
  0
SPLINE
  5
BB
100
AcDbEntity
  8
0
370
               5
390
0
  6
Continuous
 62
               7
100
AcDbSpline
210
0.0
220
0.0
230
1.0
 70
               8
 71
               2
 72
               8
 73
               5
 74
               0
 42
0.000001
 43
0.000001
 40
0.0
 40
0.0
 40
0.0
 40
1.0
 40
2.0
 40
3.0
 40
3.0
 40
3.0
 10
10400.0
 20
2100.0
 30
0.0
 10
10386.602000000001
 20
2100.0
 30
0.0
 10
10363.397000000001
 20
2087.1379999999999
 30
0.0
 10
10350.0
 20
2064.8609999999999
 30
0.0
 10
10350.0
 20
2052.0
 30
0.0
  0
SPLINE
  5
BC
100
AcDbEntity
  8
0
370
               5
390
0
  6
Continuous
 62
               7
100
AcDbSpline
210
0.0
220
0.0
230
1.0
 70
               8
 71
               2
 72
               8
 73
               5
 74
               0
 42
0.000001
 43
0.000001
 40
0.0
 40
0.0
 40
0.0
 40
1.0
 40
2.0
 40
3.0
 40
3.0
 40
3.0
 10
10452.0
 20
2050.0
 30
0.0
 10
10452.0
 20
2063.3969999999999
 30
0.0
 10
10438.066000000001
 20
2086.6019999999999
 30
0.0
 10
10413.933000000001
 20
2100.0
 30
0.0
 10
10400.0
 20
2100.0
 30
0.0
  0
SPLINE
  5
BD
100
AcDbEntity
  8
0
370
               5
390
0
  6
Continuous
 62
               7
100
AcDbSpline
210
0.0
220
0.0
230
1.0
 70
               8
 71
               2
 72
               8
 73
               5
 74
               0
 42
0.000001
 43
0.000001
 40
0.0
 40
0.0
 40
0.0
 40
1.0
 40
2.0
 40
3.0
 40
3.0
 40
3.0
 10
10452.0
 20
2050.0
 30
0.0
 10
10452.0
 20
2037.1380000000001
 30
0.0
 10
10465.933000000001
 20
2014.8610000000001
 30
0.0
 10
10490.066000000001
 20
2002.0
 30
0.0
 10
10504.0
 20
2002.0
 30
0.0
  0
SPLINE
  5
BE
100
AcDbEntity
  8
0
370
               5
390
0
  6
Continuous
 62
               7
100
AcDbSpline
210
0.0
220
0.0
230
1.0
 70
               8
 71
               2
 72
               8
 73
               5
 74
               0
 42
0.000001
 43
0.000001
 40
0.0
 40
0.0
 40
0.0
 40
1.0
 40
2.0
 40
3.0
 40
3.0
 40
3.0
 10
10504.0
 20
2002.0
 30
0.0
 10
10516.325000000001
 20
2002.0
 30
0.0
 10
10537.674000000001
 20
2014.8610000000001
 30
0.0
 10
10550.0
 20
2037.1380000000001
 30
0.0
 10
10550.0
 20
2050.0
 30
0.0
  0
SPLINE
  5
BF
100
AcDbEntity
  8
0
370
               5
390
0
  6
Continuous
 62
               7
100
AcDbSpline
210
0.0
220
0.0
230
1.0
 70
               8
 71
               2
 72
               8
 73
               5
 74
               0
 42
0.000001
 43
0.000001
 40
0.0
 40
0.0
 40
0.0
 40
1.0
 40
2.0
 40
3.0
 40
3.0
 40
3.0
 10
10596.0
 20
2102.0
 30
0.0
 10
10583.674000000001
 20
2102.0
 30
0.0
 10
10562.325000000001
 20
2088.0660000000003
 30
0.0
 10
10550.0
 20
2063.933
 30
0.0
 10
10550.0
 20
2050.0
 30
0.0
  0
SPLINE
  5
C0
100
AcDbEntity
  8
0
370
               5
390
0
  6
Continuous
 62
               7
100
AcDbSpline
210
0.0
220
0.0
230
1.0
 70
               8
 71
               2
 72
               8
 73
               5
 74
               0
 42
0.000001
 43
0.000001
 40
0.0
 40
0.0
 40
0.0
 40
1.0
 40
2.0
 40
3.0
 40
3.0
 40
3.0
 10
10650.0
 20
2050.0
 30
0.0
 10
10650.0
 20
2063.933
 30
0.0
 10
10635.530000000001
 20
2088.0660000000003
 30
0.0
 10
10610.469000000001
 20
2102.0
 30
0.0
 10
10596.0
 20
2102.0
 30
0.0
  0
SPLINE
  5
C1
100
AcDbEntity
  8
0
370
               5
390
0
  6
Continuous
 62
               7
100
AcDbSpline
210
0.0
220
0.0
230
1.0
 70
               8
 71
               2
 72
               8
 73
               5
 74
               0
 42
0.000001
 43
0.000001
 40
0.0
 40
0.0
 40
0.0
 40
1.0
 40
2.0
 40
3.0
 40
3.0
 40
3.0
 10
10650.0
 20
2050.0
 30
0.0
 10
10650.0
 20
2037.1380000000001
 30
0.0
 10
10663.933000000001
 20
2014.8610000000001
 30
0.0
 10
10688.066000000001
 20
2002.0
 30
0.0
 10
10702.0
 20
2002.0
 30
0.0
  0
SPLINE
  5
C2
100
AcDbEntity
  8
0
370
               5
390
0
  6
Continuous
 62
               7
100
AcDbSpline
210
0.0
220
0.0
230
1.0
 70
               8
 71
               2
 72
               8
 73
               5
 74
               0
 42
0.000001
 43
0.000001
 40
0.0
 40
0.0
 40
0.0
 40
1.0
 40
2.0
 40
3.0
 40
3.0
 40
3.0
 10
10702.0
 20
2002.0
 30
0.0
 10
10714.861000000001
 20
2002.0
 30
0.0
 10
10737.138000000001
 20
2015.3969999999999
 30
0.0
 10
10750.0
 20
2038.6020000000001
 30
0.0
 10
10750.0
 20
2052.0
 30
0.0
  0
SPLINE
  5
C3
100
AcDbEntity
  8
0
370
               5
390
0
  6
Continuous
 62
               7
100
AcDbSpline
210
0.0
220
0.0
230
1.0
 70
               8
 71
               2
 72
               8
 73
               5
 74
               0
 42
0.000001
 43
0.000001
 40
0.0
 40
0.0
 40
0.0
 40
1.0
 40
2.0
 40
3.0
 40
3.0
 40
3.0
 10
10800.0
 20
2100.0
 30
0.0
 10
10786.602000000001
 20
2100.0
 30
0.0
 10
10763.397000000001
 20
2087.1379999999999
 30
0.0
 10
10750.0
 20
2064.8609999999999
 30
0.0
 10
10750.0
 20
2052.0
 30
0.0
  0
SPLINE
  5
C4
100
AcDbEntity
  8
0
370
               5
390
0
  6
Continuous
 62
               7
100
AcDbSpline
210
0.0
220
0.0
230
1.0
 70
               8
 71
               2
 72
               8
 73
               5
 74
               0
 42
0.000001
 43
0.000001
 40
0.0
 40
0.0
 40
0.0
 40
1.0
 40
2.0
 40
3.0
 40
3.0
 40
3.0
 10
10852.0
 20
2052.0
 30
0.0
 10
10852.0
 20
2064.8609999999999
 30
0.0
 10
10838.066000000001
 20
2087.1379999999999
 30
0.0
 10
10813.933000000001
 20
2100.0
 30
0.0
 10
10800.0
 20
2100.0
 30
0.0
  0
ARC
  5
C5
100
AcDbEntity
  8
0
370
               5
390
0
  6
Continuous
 62
               7
100
AcDbCircle
 10
10902.0
 20
2052.0
 30
0.0
 40
50.0
100
AcDbArc
 50
180.0
 51
270.0
  0
SPLINE
  5
C6
100
AcDbEntity
  8
0
370
               5
390
0
  6
Continuous
 62
               7
100
AcDbSpline
210
0.0
220
0.0
230
1.0
 70
               8
 71
               2
 72
               8
 73
               5
 74
               0
 42
0.000001
 43
0.000001
 40
0.0
 40
0.0
 40
0.0
 40
1.0
 40
2.0
 40
3.0
 40
3.0
 40
3.0
 10
10902.0
 20
2002.0
 30
0.0
 10
10914.325000000001
 20
2002.0
 30
0.0
 10
10935.674000000001
 20
2015.3969999999999
 30
0.0
 10
10948.0
 20
2038.6020000000001
 30
0.0
 10
10948.0
 20
2052.0
 30
0.0
  0
SPLINE
  5
C7
100
AcDbEntity
  8
0
370
               5
390
0
  6
Continuous
 62
               7
100
AcDbSpline
210
0.0
220
0.0
230
1.0
 70
               8
 71
               2
 72
               8
 73
               5
 74
               0
 42
0.000001
 43
0.000001
 40
0.0
 40
0.0
 40
0.0
 40
1.0
 40
2.0
 40
3.0
 40
3.0
 40
3.0
 10
11000.0
 20
2100.0
 30
0.0
 10
10986.066000000001
 20
2100.0
 30
0.0
 10
10961.933000000001
 20
2087.1379999999999
 30
0.0
 10
10948.0
 20
2064.8609999999999
 30
0.0
 10
10948.0
 20
2052.0
 30
0.0
  0
ARC
  5
C8
100
AcDbEntity
  8
0
370
               5
390
0
  6
Continuous
 62
               7
100
AcDbCircle
 10
11000.0
 20
2050.0
 30
0.0
 40
50.0
100
AcDbArc
 50
0.0
 51
90.0
  0
SPLINE
  5
C9
100
AcDbEntity
  8
0
370
               5
390
0
  6
Continuous
 62
               7
100
AcDbSpline
210
0.0
220
0.0
230
1.0
 70
               8
 71
               2
 72
               8
 73
               5
 74
               0
 42
0.000001
 43
0.000001
 40
0.0
 40
0.0
 40
0.0
 40
1.0
 40
2.0
 40
3.0
 40
3.0
 40
3.0
 10
11050.0
 20
2050.0
 30
0.0
 10
11050.0
 20
2037.1380000000001
 30
0.0
 10
11064.469000000001
 20
2014.8610000000001
 30
0.0
 10
11089.530000000001
 20
2002.0
 30
0.0
 10
11104.0
 20
2002.0
 30
0.0
  0
SPLINE
  5
CA
100
AcDbEntity
  8
0
370
               5
390
0
  6
Continuous
 62
               7
100
AcDbSpline
210
0.0
220
0.0
230
1.0
 70
               8
 71
               2
 72
               8
 73
               5
 74
               0
 42
0.000001
 43
0.000001
 40
0.0
 40
0.0
 40
0.0
 40
1.0
 40
2.0
 40
3.0
 40
3.0
 40
3.0
 10
11104.0
 20
2002.0
 30
0.0
 10
11115.789000000001
 20
2002.0
 30
0.0
 10
11136.210000000001
 20
2014.8610000000001
 30
0.0
 10
11148.0
 20
2037.1380000000001
 30
0.0
 10
11148.0
 20
2050.0
 30
0.0
  0
ARC
  5
CB
100
AcDbEntity
  8
0
370
               5
390
0
  6
Continuous
 62
               7
100
AcDbCircle
 10
11200.0
 20
2050.0
 30
0.0
 40
52.0
100
AcDbArc
 50
90.0
 51
180.0
  0
SPLINE
  5
CC
100
AcDbEntity
  8
0
370
               5
390
0
  6
Continuous
 62
               7
100
AcDbSpline
210
0.0
220
0.0
230
1.0
 70
               8
 71
               2
 72
               8
 73
               5
 74
               0
 42
0.000001
 43
0.000001
 40
0.0
 40
0.0
 40
0.0
 40
1.0
 40
2.0
 40
3.0
 40
3.0
 40
3.0
 10
11250.0
 20
2050.0
 30
0.0
 10
11250.0
 20
2063.933
 30
0.0
 10
11236.602000000001
 20
2088.0660000000003
 30
0.0
 10
11213.397000000001
 20
2102.0
 30
0.0
 10
11200.0
 20
2102.0
 30
0.0
  0
SPLINE
  5
CD
100
AcDbEntity
  8
0
370
               5
390
0
  6
Continuous
 62
               7
100
AcDbSpline
210
0.0
220
0.0
230
1.0
 70
               8
 71
               2
 72
               8
 73
               5
 74
               0
 42
0.000001
 43
0.000001
 40
0.0
 40
0.0
 40
0.0
 40
1.0
 40
2.0
 40
3.0
 40
3.0
 40
3.0
 10
11250.0
 20
2050.0
 30
0.0
 10
11250.0
 20
2036.6020000000001
 30
0.0
 10
11264.469000000001
 20
2013.3969999999999
 30
0.0
 10
11289.530000000001
 20
2000.0
 30
0.0
 10
11304.0
 20
2000.0
 30
0.0
  0
SPLINE
  5
CE
100
AcDbEntity
  8
0
370
               5
390
0
  6
Continuous
 62
               7
100
AcDbSpline
210
0.0
220
0.0
230
1.0
 70
               8
 71
               2
 72
               8
 73
               5
 74
               0
 42
0.000001
 43
0.000001
 40
0.0
 40
0.0
 40
0.0
 40
1.0
 40
2.0
 40
3.0
 40
3.0
 40
3.0
 10
11304.0
 20
2000.0
 30
0.0
 10
11316.325000000001
 20
2000.0
 30
0.0
 10
11337.674000000001
 20
2013.3969999999999
 30
0.0
 10
11350.0
 20
2036.6020000000001
 30
0.0
 10
11350.0
 20
2050.0
 30
0.0
  0
ARC
  5
CF
100
AcDbEntity
  8
0
370
               5
390
0
  6
Continuous
 62
               7
100
AcDbCircle
 10
11398.0
 20
2050.0
 30
0.0
 40
48.0
100
AcDbArc
 50
90.0
 51
180.0
  0
SPLINE
  5
D0
100
AcDbEntity
  8
0
370
               5
390
0
  6
Continuous
 62
               7
100
AcDbSpline
210
0.0
220
0.0
230
1.0
 70
               8
 71
               2
 72
               8
 73
               5
 74
               0
 42
0.000001
 43
0.000001
 40
0.0
 40
0.0
 40
0.0
 40
1.0
 40
2.0
 40
3.0
 40
3.0
 40
3.0
 10
11450.0
 20
2050.0
 30
0.0
 10
11450.0
 20
2062.8609999999999
 30
0.0
 10
11436.066000000001
 20
2085.1379999999999
 30
0.0
 10
11411.933000000001
 20
2098.0
 30
0.0
 10
11398.0
 20
2098.0
 30
0.0
  0
SPLINE
  5
D1
100
AcDbEntity
  8
0
370
               5
390
0
  6
Continuous
 62
               7
100
AcDbSpline
210
0.0
220
0.0
230
1.0
 70
               8
 71
               2
 72
               8
 73
               5
 74
               0
 42
0.000001
 43
0.000001
 40
0.0
 40
0.0
 40
0.0
 40
1.0
 40
2.0
 40
3.0
 40
3.0
 40
3.0
 10
11450.0
 20
2050.0
 30
0.0
 10
11450.0
 20
2036.6020000000001
 30
0.0
 10
11464.469000000001
 20
2013.3969999999999
 30
0.0
 10
11489.530000000001
 20
2000.0
 30
0.0
 10
11504.0
 20
2000.0
 30
0.0
  0
SPLINE
  5
D2
100
AcDbEntity
  8
0
370
               5
390
0
  6
Continuous
 62
               7
100
AcDbSpline
210
0.0
220
0.0
230
1.0
 70
               8
 71
               2
 72
               8
 73
               5
 74
               0
 42
0.000001
 43
0.000001
 40
0.0
 40
0.0
 40
0.0
 40
1.0
 40
2.0
 40
3.0
 40
3.0
 40
3.0
 10
11504.0
 20
2000.0
 30
0.0
 10
11516.325000000001
 20
2000.0
 30
0.0
 10
11537.674000000001
 20
2013.3969999999999
 30
0.0
 10
11550.0
 20
2036.6020000000001
 30
0.0
 10
11550.0
 20
2050.0
 30
0.0
  0
SPLINE
  5
D3
100
AcDbEntity
  8
0
370
               5
390
0
  6
Continuous
 62
               7
100
AcDbSpline
210
0.0
220
0.0
230
1.0
 70
               8
 71
               2
 72
               8
 73
               5
 74
               0
 42
0.000001
 43
0.000001
 40
0.0
 40
0.0
 40
0.0
 40
1.0
 40
2.0
 40
3.0
 40
3.0
 40
3.0
 10
11602.0
 20
2100.0
 30
0.0
 10
11588.066000000001
 20
2100.0
 30
0.0
 10
11563.933000000001
 20
2086.6019999999999
 30
0.0
 10
11550.0
 20
2063.3969999999999
 30
0.0
 10
11550.0
 20
2050.0
 30
0.0
  0
ARC
  5
D4
100
AcDbEntity
  8
0
370
               5
390
0
  6
Continuous
 62
               7
100
AcDbCircle
 10
11602.0
 20
2050.0
 30
0.0
 40
50.0
100
AcDbArc
 50
0.0
 51
90.0
  0
SPLINE
  5
D5
100
AcDbEntity
  8
0
370
               5
390
0
  6
Continuous
 62
               7
100
AcDbSpline
210
0.0
220
0.0
230
1.0
 70
               8
 71
               2
 72
               8
 73
               5
 74
               0
 42
0.000001
 43
0.000001
 40
0.0
 40
0.0
 40
0.0
 40
1.0
 40
2.0
 40
3.0
 40
3.0
 40
3.0
 10
11652.0
 20
2050.0
 30
0.0
 10
11652.0
 20
2036.6020000000001
 30
0.0
 10
11665.933000000001
 20
2013.3969999999999
 30
0.0
 10
11690.066000000001
 20
2000.0
 30
0.0
 10
11704.0
 20
2000.0
 30
0.0
  0
SPLINE
  5
D6
100
AcDbEntity
  8
0
370
               5
390
0
  6
Continuous
 62
               7
100
AcDbSpline
210
0.0
220
0.0
230
1.0
 70
               8
 71
               2
 72
               8
 73
               5
 74
               0
 42
0.000001
 43
0.000001
 40
0.0
 40
0.0
 40
0.0
 40
1.0
 40
2.0
 40
3.0
 40
3.0
 40
3.0
 10
11704.0
 20
2000.0
 30
0.0
 10
11716.325000000001
 20
2000.0
 30
0.0
 10
11737.674000000001
 20
2013.3969999999999
 30
0.0
 10
11750.0
 20
2036.6020000000001
 30
0.0
 10
11750.0
 20
2050.0
 30
0.0
  0
ARC
  5
D7
100
AcDbEntity
  8
0
370
               5
390
0
  6
Continuous
 62
               7
100
AcDbCircle
 10
11800.0
 20
2050.0
 30
0.0
 40
50.0
100
AcDbArc
 50
90.0
 51
180.0
  0
ARC
  5
D8
100
AcDbEntity
  8
0
370
               5
390
0
  6
Continuous
 62
               7
100
AcDbCircle
 10
11800.0
 20
2050.0
 30
0.0
 40
50.0
100
AcDbArc
 50
0.0
 51
90.0
  0
SPLINE
  5
D9
100
AcDbEntity
  8
0
370
               5
390
0
  6
Continuous
 62
               7
100
AcDbSpline
210
0.0
220
0.0
230
1.0
 70
               8
 71
               2
 72
               8
 73
               5
 74
               0
 42
0.000001
 43
0.000001
 40
0.0
 40
0.0
 40
0.0
 40
1.0
 40
2.0
 40
3.0
 40
3.0
 40
3.0
 10
11850.0
 20
2050.0
 30
0.0
 10
11850.0
 20
2036.6020000000001
 30
0.0
 10
11864.469000000001
 20
2013.3969999999999
 30
0.0
 10
11889.530000000001
 20
2000.0
 30
0.0
 10
11904.0
 20
2000.0
 30
0.0
  0
SPLINE
  5
DA
100
AcDbEntity
  8
0
370
               5
390
0
  6
Continuous
 62
               7
100
AcDbSpline
210
0.0
220
0.0
230
1.0
 70
               8
 71
               2
 72
               8
 73
               5
 74
               0
 42
0.000001
 43
0.000001
 40
0.0
 40
0.0
 40
0.0
 40
1.0
 40
2.0
 40
3.0
 40
3.0
 40
3.0
 10
11904.0
 20
2000.0
 30
0.0
 10
11916.325000000001
 20
2000.0
 30
0.0
 10
11937.674000000001
 20
2013.3969999999999
 30
0.0
 10
11950.0
 20
2036.6020000000001
 30
0.0
 10
11950.0
 20
2050.0
 30
0.0
  0
ARC
  5
DB
100
AcDbEntity
  8
0
370
               5
390
0
  6
Continuous
 62
               7
100
AcDbCircle
 10
12000.0
 20
2050.0
 30
0.0
 40
50.0
100
AcDbArc
 50
90.0
 51
180.0
  0
SPLINE
  5
DC
100
AcDbEntity
  8
0
370
               5
390
0
  6
Continuous
 62
               7
100
AcDbSpline
210
0.0
220
0.0
230
1.0
 70
               8
 71
               2
 72
               8
 73
               5
 74
               0
 42
0.000001
 43
0.000001
 40
0.0
 40
0.0
 40
0.0
 40
1.0
 40
2.0
 40
3.0
 40
3.0
 40
3.0
 10
12048.0
 20
2050.0
 30
0.0
 10
12048.0
 20
2063.3969999999999
 30
0.0
 10
12035.138000000001
 20
2086.6019999999999
 30
0.0
 10
12012.861000000001
 20
2100.0
 30
0.0
 10
12000.0
 20
2100.0
 30
0.0
  0
SPLINE
  5
DD
100
AcDbEntity
  8
0
370
               5
390
0
  6
Continuous
 62
               7
100
AcDbSpline
210
0.0
220
0.0
230
1.0
 70
               8
 71
               2
 72
               8
 73
               5
 74
               0
 42
0.000001
 43
0.000001
 40
0.0
 40
0.0
 40
0.0
 40
1.0
 40
2.0
 40
3.0
 40
3.0
 40
3.0
 10
12048.0
 20
2050.0
 30
0.0
 10
12048.0
 20
2037.1380000000001
 30
0.0
 10
12062.469000000001
 20
2014.8610000000001
 30
0.0
 10
12087.530000000001
 20
2002.0
 30
0.0
 10
12102.0
 20
2002.0
 30
0.0
  0
ARC
  5
DE
100
AcDbEntity
  8
0
370
               5
390
0
  6
Continuous
 62
               7
100
AcDbCircle
 10
12102.0
 20
2050.0
 30
0.0
 40
48.0
100
AcDbArc
 50
270.0
 51
0.0
  0
ARC
  5
DF
100
AcDbEntity
  8
0
370
               5
390
0
  6
Continuous
 62
               7
100
AcDbCircle
 10
12200.0
 20
2050.0
 30
0.0
 40
50.0
100
AcDbArc
 50
90.0
 51
180.0
  0
ARC
  5
E0
100
AcDbEntity
  8
0
370
               5
390
0
  6
Continuous
 62
               7
100
AcDbCircle
 10
12200.0
 20
2050.0
 30
0.0
 40
50.0
100
AcDbArc
 50
0.0
 51
90.0
  0
SPLINE
  5
E1
100
AcDbEntity
  8
0
370
               5
390
0
  6
Continuous
 62
               7
100
AcDbSpline
210
0.0
220
0.0
230
1.0
 70
               8
 71
               2
 72
               8
 73
               5
 74
               0
 42
0.000001
 43
0.000001
 40
0.0
 40
0.0
 40
0.0
 40
1.0
 40
2.0
 40
3.0
 40
3.0
 40
3.0
 10
12250.0
 20
2050.0
 30
0.0
 10
12250.0
 20
2036.6020000000001
 30
0.0
 10
12264.469000000001
 20
2013.3969999999999
 30
0.0
 10
12289.530000000001
 20
2000.0
 30
0.0
 10
12304.0
 20
2000.0
 30
0.0
  0
SPLINE
  5
E2
100
AcDbEntity
  8
0
370
               5
390
0
  6
Continuous
 62
               7
100
AcDbSpline
210
0.0
220
0.0
230
1.0
 70
               8
 71
               2
 72
               8
 73
               5
 74
               0
 42
0.000001
 43
0.000001
 40
0.0
 40
0.0
 40
0.0
 40
1.0
 40
2.0
 40
3.0
 40
3.0
 40
3.0
 10
12304.0
 20
2000.0
 30
0.0
 10
12316.325000000001
 20
2000.0
 30
0.0
 10
12337.674000000001
 20
2013.3969999999999
 30
0.0
 10
12350.0
 20
2036.6020000000001
 30
0.0
 10
12350.0
 20
2050.0
 30
0.0
  0
ARC
  5
E3
100
AcDbEntity
  8
0
370
               5
390
0
  6
Continuous
 62
               7
100
AcDbCircle
 10
12400.0
 20
2050.0
 30
0.0
 40
50.0
100
AcDbArc
 50
90.0
 51
180.0
  0
ARC
  5
E4
100
AcDbEntity
  8
0
370
               5
390
0
  6
Continuous
 62
               7
100
AcDbCircle
 10
12400.0
 20
2050.0
 30
0.0
 40
50.0
100
AcDbArc
 50
0.0
 51
90.0
  0
SPLINE
  5
E5
100
AcDbEntity
  8
0
370
               5
390
0
  6
Continuous
 62
               7
100
AcDbSpline
210
0.0
220
0.0
230
1.0
 70
               8
 71
               2
 72
               8
 73
               5
 74
               0
 42
0.000001
 43
0.000001
 40
0.0
 40
0.0
 40
0.0
 40
1.0
 40
2.0
 40
3.0
 40
3.0
 40
3.0
 10
12450.0
 20
2050.0
 30
0.0
 10
12450.0
 20
2036.6020000000001
 30
0.0
 10
12464.469000000001
 20
2013.3969999999999
 30
0.0
 10
12489.530000000001
 20
2000.0
 30
0.0
 10
12504.0
 20
2000.0
 30
0.0
  0
SPLINE
  5
E6
100
AcDbEntity
  8
0
370
               5
390
0
  6
Continuous
 62
               7
100
AcDbSpline
210
0.0
220
0.0
230
1.0
 70
               8
 71
               2
 72
               8
 73
               5
 74
               0
 42
0.000001
 43
0.000001
 40
0.0
 40
0.0
 40
0.0
 40
1.0
 40
2.0
 40
3.0
 40
3.0
 40
3.0
 10
12504.0
 20
2000.0
 30
0.0
 10
12516.325000000001
 20
2000.0
 30
0.0
 10
12537.674000000001
 20
2013.3969999999999
 30
0.0
 10
12550.0
 20
2036.6020000000001
 30
0.0
 10
12550.0
 20
2050.0
 30
0.0
  0
LINE
  5
E7
100
AcDbEntity
  8
0
370
               5
390
0
  6
Continuous
 62
               7
100
AcDbLine
 10
10050.0
 20
1500.0
 30
0.0
 11
12550.0
 21
1500.0
 31
0.0
  0
ARC
  5
E8
100
AcDbEntity
  8
0
370
               5
390
0
  6
Continuous
 62
               7
100
AcDbCircle
 10
12500.0
 20
950.0
 30
0.0
 40
50.0
100
AcDbArc
 50
270.0
 51
0.0
  0
SPLINE
  5
E9
100
AcDbEntity
  8
0
370
               5
390
0
  6
Continuous
 62
               7
100
AcDbSpline
210
0.0
220
0.0
230
1.0
 70
               8
 71
               2
 72
               8
 73
               5
 74
               0
 42
0.000001
 43
0.000001
 40
0.0
 40
0.0
 40
0.0
 40
1.0
 40
2.0
 40
3.0
 40
3.0
 40
3.0
 10
12445.0
 20
950.0
 30
0.0
 10
12445.0
 20
936.60199999999998
 30
0.0
 10
12459.737000000001
 20
913.39700000000005
 30
0.0
 10
12485.262000000001
 20
900.0
 30
0.0
 10
12500.0
 20
900.0
 30
0.0
  0
SPLINE
  5
EA
100
AcDbEntity
  8
0
370
               5
390
0
  6
Continuous
 62
               7
100
AcDbSpline
210
0.0
220
0.0
230
1.0
 70
               8
 71
               2
 72
               8
 73
               5
 74
               0
 42
0.000001
 43
0.000001
 40
0.0
 40
0.0
 40
0.0
 40
1.0
 40
2.0
 40
3.0
 40
3.0
 40
3.0
 10
12445.0
 20
950.0
 30
0.0
 10
12445.0
 20
962.86099999999999
 30
0.0
 10
12431.870000000001
 20
985.13800000000003
 30
0.0
 10
12409.129000000001
 20
998.0
 30
0.0
 10
12396.0
 20
998.0
 30
0.0
  0
ARC
  5
EB
100
AcDbEntity
  8
0
370
               5
390
0
  6
Continuous
 62
               7
100
AcDbCircle
 10
12396.0
 20
952.0
 30
0.0
 40
46.0
100
AcDbArc
 50
90.0
 51
180.0
  0
SPLINE
  5
EC
100
AcDbEntity
  8
0
370
               5
390
0
  6
Continuous
 62
               7
100
AcDbSpline
210
0.0
220
0.0
230
1.0
 70
               8
 71
               2
 72
               8
 73
               5
 74
               0
 42
0.000001
 43
0.000001
 40
0.0
 40
0.0
 40
0.0
 40
1.0
 40
2.0
 40
3.0
 40
3.0
 40
3.0
 10
12300.0
 20
900.0
 30
0.0
 10
12313.397000000001
 20
900.0
 30
0.0
 10
12336.602000000001
 20
913.93299999999999
 30
0.0
 10
12350.0
 20
938.06600000000003
 30
0.0
 10
12350.0
 20
952.0
 30
0.0
  0
ARC
  5
ED
100
AcDbEntity
  8
0
370
               5
390
0
  6
Continuous
 62
               7
100
AcDbCircle
 10
12300.0
 20
950.0
 30
0.0
 40
50.0
100
AcDbArc
 50
180.0
 51
270.0
  0
ARC
  5
EE
100
AcDbEntity
  8
0
370
               5
390
0
  6
Continuous
 62
               7
100
AcDbCircle
 10
12200.0
 20
950.0
 30
0.0
 40
50.0
100
AcDbArc
 50
0.0
 51
90.0
  0
SPLINE
  5
EF
100
AcDbEntity
  8
0
370
               5
390
0
  6
Continuous
 62
               7
100
AcDbSpline
210
0.0
220
0.0
230
1.0
 70
               8
 71
               2
 72
               8
 73
               5
 74
               0
 42
0.000001
 43
0.000001
 40
0.0
 40
0.0
 40
0.0
 40
1.0
 40
2.0
 40
3.0
 40
3.0
 40
3.0
 10
12200.0
 20
1000.0
 30
0.0
 10
12187.138000000001
 20
1000.0
 30
0.0
 10
12164.861000000001
 20
986.60199999999998
 30
0.0
 10
12152.0
 20
963.39700000000005
 30
0.0
 10
12152.0
 20
950.0
 30
0.0
  0
SPLINE
  5
F0
100
AcDbEntity
  8
0
370
               5
390
0
  6
Continuous
 62
               7
100
AcDbSpline
210
0.0
220
0.0
230
1.0
 70
               8
 71
               2
 72
               8
 73
               5
 74
               0
 42
0.000001
 43
0.000001
 40
0.0
 40
0.0
 40
0.0
 40
1.0
 40
2.0
 40
3.0
 40
3.0
 40
3.0
 10
12102.0
 20
902.0
 30
0.0
 10
12115.397000000001
 20
902.0
 30
0.0
 10
12138.602000000001
 20
914.86099999999999
 30
0.0
 10
12152.0
 20
937.13800000000003
 30
0.0
 10
12152.0
 20
950.0
 30
0.0
  0
SPLINE
  5
F1
100
AcDbEntity
  8
0
370
               5
390
0
  6
Continuous
 62
               7
100
AcDbSpline
210
0.0
220
0.0
230
1.0
 70
               8
 71
               2
 72
               8
 73
               5
 74
               0
 42
0.000001
 43
0.000001
 40
0.0
 40
0.0
 40
0.0
 40
1.0
 40
2.0
 40
3.0
 40
3.0
 40
3.0
 10
12050.0
 20
948.0
 30
0.0
 10
12050.0
 20
935.67399999999998
 30
0.0
 10
12063.933000000001
 20
914.32500000000005
 30
0.0
 10
12088.066000000001
 20
902.0
 30
0.0
 10
12102.0
 20
902.0
 30
0.0
  0
ARC
  5
F2
100
AcDbEntity
  8
0
370
               5
390
0
  6
Continuous
 62
               7
100
AcDbCircle
 10
12000.0
 20
948.0
 30
0.0
 40
50.0
100
AcDbArc
 50
0.0
 51
90.0
  0
SPLINE
  5
F3
100
AcDbEntity
  8
0
370
               5
390
0
  6
Continuous
 62
               7
100
AcDbSpline
210
0.0
220
0.0
230
1.0
 70
               8
 71
               2
 72
               8
 73
               5
 74
               0
 42
0.000001
 43
0.000001
 40
0.0
 40
0.0
 40
0.0
 40
1.0
 40
2.0
 40
3.0
 40
3.0
 40
3.0
 10
12000.0
 20
998.0
 30
0.0
 10
11986.602000000001
 20
998.0
 30
0.0
 10
11963.397000000001
 20
985.67399999999998
 30
0.0
 10
11950.0
 20
964.32500000000005
 30
0.0
 10
11950.0
 20
952.0
 30
0.0
  0
ARC
  5
F4
100
AcDbEntity
  8
0
370
               5
390
0
  6
Continuous
 62
               7
100
AcDbCircle
 10
11902.0
 20
952.0
 30
0.0
 40
48.0
100
AcDbArc
 50
270.0
 51
0.0
  0
SPLINE
  5
F5
100
AcDbEntity
  8
0
370
               5
390
0
  6
Continuous
 62
               7
100
AcDbSpline
210
0.0
220
0.0
230
1.0
 70
               8
 71
               2
 72
               8
 73
               5
 74
               0
 42
0.000001
 43
0.000001
 40
0.0
 40
0.0
 40
0.0
 40
1.0
 40
2.0
 40
3.0
 40
3.0
 40
3.0
 10
11850.0
 20
950.0
 30
0.0
 10
11850.0
 20
937.67399999999998
 30
0.0
 10
11863.933000000001
 20
916.32500000000005
 30
0.0
 10
11888.066000000001
 20
904.0
 30
0.0
 10
11902.0
 20
904.0
 30
0.0
  0
SPLINE
  5
F6
100
AcDbEntity
  8
0
370
               5
390
0
  6
Continuous
 62
               7
100
AcDbSpline
210
0.0
220
0.0
230
1.0
 70
               8
 71
               2
 72
               8
 73
               5
 74
               0
 42
0.000001
 43
0.000001
 40
0.0
 40
0.0
 40
0.0
 40
1.0
 40
2.0
 40
3.0
 40
3.0
 40
3.0
 10
11850.0
 20
950.0
 30
0.0
 10
11850.0
 20
962.86099999999999
 30
0.0
 10
11836.066000000001
 20
985.13800000000003
 30
0.0
 10
11811.933000000001
 20
998.0
 30
0.0
 10
11798.0
 20
998.0
 30
0.0
  0
ARC
  5
F7
100
AcDbEntity
  8
0
370
               5
390
0
  6
Continuous
 62
               7
100
AcDbCircle
 10
11798.0
 20
950.0
 30
0.0
 40
48.0
100
AcDbArc
 50
90.0
 51
180.0
  0
SPLINE
  5
F8
100
AcDbEntity
  8
0
370
               5
390
0
  6
Continuous
 62
               7
100
AcDbSpline
210
0.0
220
0.0
230
1.0
 70
               8
 71
               2
 72
               8
 73
               5
 74
               0
 42
0.000001
 43
0.000001
 40
0.0
 40
0.0
 40
0.0
 40
1.0
 40
2.0
 40
3.0
 40
3.0
 40
3.0
 10
11704.0
 20
900.0
 30
0.0
 10
11716.325000000001
 20
900.0
 30
0.0
 10
11737.674000000001
 20
913.39700000000005
 30
0.0
 10
11750.0
 20
936.60199999999998
 30
0.0
 10
11750.0
 20
950.0
 30
0.0
  0
SPLINE
  5
F9
100
AcDbEntity
  8
0
370
               5
390
0
  6
Continuous
 62
               7
100
AcDbSpline
210
0.0
220
0.0
230
1.0
 70
               8
 71
               2
 72
               8
 73
               5
 74
               0
 42
0.000001
 43
0.000001
 40
0.0
 40
0.0
 40
0.0
 40
1.0
 40
2.0
 40
3.0
 40
3.0
 40
3.0
 10
11650.0
 20
950.0
 30
0.0
 10
11650.0
 20
936.60199999999998
 30
0.0
 10
11664.469000000001
 20
913.39700000000005
 30
0.0
 10
11689.530000000001
 20
900.0
 30
0.0
 10
11704.0
 20
900.0
 30
0.0
  0
SPLINE
  5
FA
100
AcDbEntity
  8
0
370
               5
390
0
  6
Continuous
 62
               7
100
AcDbSpline
210
0.0
220
0.0
230
1.0
 70
               8
 71
               2
 72
               8
 73
               5
 74
               0
 42
0.000001
 43
0.000001
 40
0.0
 40
0.0
 40
0.0
 40
1.0
 40
2.0
 40
3.0
 40
3.0
 40
3.0
 10
11650.0
 20
950.0
 30
0.0
 10
11650.0
 20
963.39700000000005
 30
0.0
 10
11636.066000000001
 20
986.60199999999998
 30
0.0
 10
11611.933000000001
 20
1000.0
 30
0.0
 10
11598.0
 20
1000.0
 30
0.0
  0
SPLINE
  5
FB
100
AcDbEntity
  8
0
370
               5
390
0
  6
Continuous
 62
               7
100
AcDbSpline
210
0.0
220
0.0
230
1.0
 70
               8
 71
               2
 72
               8
 73
               5
 74
               0
 42
0.000001
 43
0.000001
 40
0.0
 40
0.0
 40
0.0
 40
1.0
 40
2.0
 40
3.0
 40
3.0
 40
3.0
 10
11598.0
 20
1000.0
 30
0.0
 10
11585.138000000001
 20
1000.0
 30
0.0
 10
11562.861000000001
 20
986.60199999999998
 30
0.0
 10
11550.0
 20
963.39700000000005
 30
0.0
 10
11550.0
 20
950.0
 30
0.0
  0
SPLINE
  5
FC
100
AcDbEntity
  8
0
370
               5
390
0
  6
Continuous
 62
               7
100
AcDbSpline
210
0.0
220
0.0
230
1.0
 70
               8
 71
               2
 72
               8
 73
               5
 74
               0
 42
0.000001
 43
0.000001
 40
0.0
 40
0.0
 40
0.0
 40
1.0
 40
2.0
 40
3.0
 40
3.0
 40
3.0
 10
11500.0
 20
902.0
 30
0.0
 10
11513.397000000001
 20
902.0
 30
0.0
 10
11536.602000000001
 20
914.86099999999999
 30
0.0
 10
11550.0
 20
937.13800000000003
 30
0.0
 10
11550.0
 20
950.0
 30
0.0
  0
SPLINE
  5
FD
100
AcDbEntity
  8
0
370
               5
390
0
  6
Continuous
 62
               7
100
AcDbSpline
210
0.0
220
0.0
230
1.0
 70
               8
 71
               2
 72
               8
 73
               5
 74
               0
 42
0.000001
 43
0.000001
 40
0.0
 40
0.0
 40
0.0
 40
1.0
 40
2.0
 40
3.0
 40
3.0
 40
3.0
 10
11448.0
 20
950.0
 30
0.0
 10
11448.0
 20
937.13800000000003
 30
0.0
 10
11461.933000000001
 20
914.86099999999999
 30
0.0
 10
11486.066000000001
 20
902.0
 30
0.0
 10
11500.0
 20
902.0
 30
0.0
  0
SPLINE
  5
FE
100
AcDbEntity
  8
0
370
               5
390
0
  6
Continuous
 62
               7
100
AcDbSpline
210
0.0
220
0.0
230
1.0
 70
               8
 71
               2
 72
               8
 73
               5
 74
               0
 42
0.000001
 43
0.000001
 40
0.0
 40
0.0
 40
0.0
 40
1.0
 40
2.0
 40
3.0
 40
3.0
 40
3.0
 10
11448.0
 20
950.0
 30
0.0
 10
11448.0
 20
963.93299999999999
 30
0.0
 10
11434.602000000001
 20
988.06600000000003
 30
0.0
 10
11411.397000000001
 20
1002.0
 30
0.0
 10
11398.0
 20
1002.0
 30
0.0
  0
SPLINE
  5
FF
100
AcDbEntity
  8
0
370
               5
390
0
  6
Continuous
 62
               7
100
AcDbSpline
210
0.0
220
0.0
230
1.0
 70
               8
 71
               2
 72
               8
 73
               5
 74
               0
 42
0.000001
 43
0.000001
 40
0.0
 40
0.0
 40
0.0
 40
1.0
 40
2.0
 40
3.0
 40
3.0
 40
3.0
 10
11398.0
 20
1002.0
 30
0.0
 10
11385.138000000001
 20
1002.0
 30
0.0
 10
11362.861000000001
 20
988.06600000000003
 30
0.0
 10
11350.0
 20
963.93299999999999
 30
0.0
 10
11350.0
 20
950.0
 30
0.0
  0
ARC
  5
100
100
AcDbEntity
  8
0
370
               5
390
0
  6
Continuous
 62
               7
100
AcDbCircle
 10
11302.0
 20
950.0
 30
0.0
 40
48.0
100
AcDbArc
 50
270.0
 51
0.0
  0
SPLINE
  5
101
100
AcDbEntity
  8
0
370
               5
390
0
  6
Continuous
 62
               7
100
AcDbSpline
210
0.0
220
0.0
230
1.0
 70
               8
 71
               2
 72
               8
 73
               5
 74
               0
 42
0.000001
 43
0.000001
 40
0.0
 40
0.0
 40
0.0
 40
1.0
 40
2.0
 40
3.0
 40
3.0
 40
3.0
 10
11252.0
 20
950.0
 30
0.0
 10
11252.0
 20
937.13800000000003
 30
0.0
 10
11265.397000000001
 20
914.86099999999999
 30
0.0
 10
11288.602000000001
 20
902.0
 30
0.0
 10
11302.0
 20
902.0
 30
0.0
  0
SPLINE
  5
102
100
AcDbEntity
  8
0
370
               5
390
0
  6
Continuous
 62
               7
100
AcDbSpline
210
0.0
220
0.0
230
1.0
 70
               8
 71
               2
 72
               8
 73
               5
 74
               0
 42
0.000001
 43
0.000001
 40
0.0
 40
0.0
 40
0.0
 40
1.0
 40
2.0
 40
3.0
 40
3.0
 40
3.0
 10
11252.0
 20
950.0
 30
0.0
 10
11252.0
 20
962.86099999999999
 30
0.0
 10
11237.530000000001
 20
985.13800000000003
 30
0.0
 10
11212.469000000001
 20
998.0
 30
0.0
 10
11198.0
 20
998.0
 30
0.0
  0
ARC
  5
103
100
AcDbEntity
  8
0
370
               5
390
0
  6
Continuous
 62
               7
100
AcDbCircle
 10
11198.0
 20
950.0
 30
0.0
 40
48.0
100
AcDbArc
 50
90.0
 51
180.0
  0
SPLINE
  5
104
100
AcDbEntity
  8
0
370
               5
390
0
  6
Continuous
 62
               7
100
AcDbSpline
210
0.0
220
0.0
230
1.0
 70
               8
 71
               2
 72
               8
 73
               5
 74
               0
 42
0.000001
 43
0.000001
 40
0.0
 40
0.0
 40
0.0
 40
1.0
 40
2.0
 40
3.0
 40
3.0
 40
3.0
 10
11102.0
 20
900.0
 30
0.0
 10
11114.861000000001
 20
900.0
 30
0.0
 10
11137.138000000001
 20
913.39700000000005
 30
0.0
 10
11150.0
 20
936.60199999999998
 30
0.0
 10
11150.0
 20
950.0
 30
0.0
  0
SPLINE
  5
105
100
AcDbEntity
  8
0
370
               5
390
0
  6
Continuous
 62
               7
100
AcDbSpline
210
0.0
220
0.0
230
1.0
 70
               8
 71
               2
 72
               8
 73
               5
 74
               0
 42
0.000001
 43
0.000001
 40
0.0
 40
0.0
 40
0.0
 40
1.0
 40
2.0
 40
3.0
 40
3.0
 40
3.0
 10
11050.0
 20
950.0
 30
0.0
 10
11050.0
 20
936.60199999999998
 30
0.0
 10
11063.933000000001
 20
913.39700000000005
 30
0.0
 10
11088.066000000001
 20
900.0
 30
0.0
 10
11102.0
 20
900.0
 30
0.0
  0
SPLINE
  5
106
100
AcDbEntity
  8
0
370
               5
390
0
  6
Continuous
 62
               7
100
AcDbSpline
210
0.0
220
0.0
230
1.0
 70
               8
 71
               2
 72
               8
 73
               5
 74
               0
 42
0.000001
 43
0.000001
 40
0.0
 40
0.0
 40
0.0
 40
1.0
 40
2.0
 40
3.0
 40
3.0
 40
3.0
 10
11050.0
 20
950.0
 30
0.0
 10
11050.0
 20
962.86099999999999
 30
0.0
 10
11035.530000000001
 20
985.13800000000003
 30
0.0
 10
11010.469000000001
 20
998.0
 30
0.0
 10
10996.0
 20
998.0
 30
0.0
  0
SPLINE
  5
107
100
AcDbEntity
  8
0
370
               5
390
0
  6
Continuous
 62
               7
100
AcDbSpline
210
0.0
220
0.0
230
1.0
 70
               8
 71
               2
 72
               8
 73
               5
 74
               0
 42
0.000001
 43
0.000001
 40
0.0
 40
0.0
 40
0.0
 40
1.0
 40
2.0
 40
3.0
 40
3.0
 40
3.0
 10
10996.0
 20
998.0
 30
0.0
 10
10984.210000000001
 20
998.0
 30
0.0
 10
10963.789000000001
 20
985.13800000000003
 30
0.0
 10
10952.0
 20
962.86099999999999
 30
0.0
 10
10952.0
 20
950.0
 30
0.0
  0
SPLINE
  5
108
100
AcDbEntity
  8
0
370
               5
390
0
  6
Continuous
 62
               7
100
AcDbSpline
210
0.0
220
0.0
230
1.0
 70
               8
 71
               2
 72
               8
 73
               5
 74
               0
 42
0.000001
 43
0.000001
 40
0.0
 40
0.0
 40
0.0
 40
1.0
 40
2.0
 40
3.0
 40
3.0
 40
3.0
 10
10900.0
 20
902.0
 30
0.0
 10
10913.933000000001
 20
902.0
 30
0.0
 10
10938.066000000001
 20
914.86099999999999
 30
0.0
 10
10952.0
 20
937.13800000000003
 30
0.0
 10
10952.0
 20
950.0
 30
0.0
  0
SPLINE
  5
109
100
AcDbEntity
  8
0
370
               5
390
0
  6
Continuous
 62
               7
100
AcDbSpline
210
0.0
220
0.0
230
1.0
 70
               8
 71
               2
 72
               8
 73
               5
 74
               0
 42
0.000001
 43
0.000001
 40
0.0
 40
0.0
 40
0.0
 40
1.0
 40
2.0
 40
3.0
 40
3.0
 40
3.0
 10
10850.0
 20
950.0
 30
0.0
 10
10850.0
 20
937.13800000000003
 30
0.0
 10
10863.397000000001
 20
914.86099999999999
 30
0.0
 10
10886.602000000001
 20
902.0
 30
0.0
 10
10900.0
 20
902.0
 30
0.0
  0
SPLINE
  5
10A
100
AcDbEntity
  8
0
370
               5
390
0
  6
Continuous
 62
               7
100
AcDbSpline
210
0.0
220
0.0
230
1.0
 70
               8
 71
               2
 72
               8
 73
               5
 74
               0
 42
0.000001
 43
0.000001
 40
0.0
 40
0.0
 40
0.0
 40
1.0
 40
2.0
 40
3.0
 40
3.0
 40
3.0
 10
10850.0
 20
950.0
 30
0.0
 10
10850.0
 20
963.39700000000005
 30
0.0
 10
10834.994000000001
 20
986.60199999999998
 30
0.0
 10
10809.005000000001
 20
1000.0
 30
0.0
 10
10794.0
 20
1000.0
 30
0.0
  0
SPLINE
  5
10B
100
AcDbEntity
  8
0
370
               5
390
0
  6
Continuous
 62
               7
100
AcDbSpline
210
0.0
220
0.0
230
1.0
 70
               8
 71
               2
 72
               8
 73
               5
 74
               0
 42
0.000001
 43
0.000001
 40
0.0
 40
0.0
 40
0.0
 40
1.0
 40
2.0
 40
3.0
 40
3.0
 40
3.0
 10
10794.0
 20
1000.0
 30
0.0
 10
10782.746000000001
 20
1000.0
 30
0.0
 10
10763.253000000001
 20
986.60199999999998
 30
0.0
 10
10752.0
 20
963.39700000000005
 30
0.0
 10
10752.0
 20
950.0
 30
0.0
  0
ARC
  5
10C
100
AcDbEntity
  8
0
370
               5
390
0
  6
Continuous
 62
               7
100
AcDbCircle
 10
10702.0
 20
950.0
 30
0.0
 40
50.0
100
AcDbArc
 50
270.0
 51
0.0
  0
ARC
  5
10D
100
AcDbEntity
  8
0
370
               5
390
0
  6
Continuous
 62
               7
100
AcDbCircle
 10
10702.0
 20
950.0
 30
0.0
 40
50.0
100
AcDbArc
 50
180.0
 51
270.0
  0
SPLINE
  5
10E
100
AcDbEntity
  8
0
370
               5
390
0
  6
Continuous
 62
               7
100
AcDbSpline
210
0.0
220
0.0
230
1.0
 70
               8
 71
               2
 72
               8
 73
               5
 74
               0
 42
0.000001
 43
0.000001
 40
0.0
 40
0.0
 40
0.0
 40
1.0
 40
2.0
 40
3.0
 40
3.0
 40
3.0
 10
10652.0
 20
950.0
 30
0.0
 10
10652.0
 20
963.39700000000005
 30
0.0
 10
10636.994000000001
 20
986.60199999999998
 30
0.0
 10
10611.005000000001
 20
1000.0
 30
0.0
 10
10596.0
 20
1000.0
 30
0.0
  0
SPLINE
  5
10F
100
AcDbEntity
  8
0
370
               5
390
0
  6
Continuous
 62
               7
100
AcDbSpline
210
0.0
220
0.0
230
1.0
 70
               8
 71
               2
 72
               8
 73
               5
 74
               0
 42
0.000001
 43
0.000001
 40
0.0
 40
0.0
 40
0.0
 40
1.0
 40
2.0
 40
3.0
 40
3.0
 40
3.0
 10
10596.0
 20
1000.0
 30
0.0
 10
10583.138000000001
 20
1000.0
 30
0.0
 10
10560.861000000001
 20
986.60199999999998
 30
0.0
 10
10548.0
 20
963.39700000000005
 30
0.0
 10
10548.0
 20
950.0
 30
0.0
  0
ARC
  5
110
100
AcDbEntity
  8
0
370
               5
390
0
  6
Continuous
 62
               7
100
AcDbCircle
 10
10500.0
 20
950.0
 30
0.0
 40
48.0
100
AcDbArc
 50
270.0
 51
0.0
  0
ARC
  5
111
100
AcDbEntity
  8
0
370
               5
390
0
  6
Continuous
 62
               7
100
AcDbCircle
 10
10500.0
 20
950.0
 30
0.0
 40
48.0
100
AcDbArc
 50
180.0
 51
270.0
  0
SPLINE
  5
112
100
AcDbEntity
  8
0
370
               5
390
0
  6
Continuous
 62
               7
100
AcDbSpline
210
0.0
220
0.0
230
1.0
 70
               8
 71
               2
 72
               8
 73
               5
 74
               0
 42
0.000001
 43
0.000001
 40
0.0
 40
0.0
 40
0.0
 40
1.0
 40
2.0
 40
3.0
 40
3.0
 40
3.0
 10
10452.0
 20
950.0
 30
0.0
 10
10452.0
 20
963.39700000000005
 30
0.0
 10
10437.530000000001
 20
986.60199999999998
 30
0.0
 10
10412.469000000001
 20
1000.0
 30
0.0
 10
10398.0
 20
1000.0
 30
0.0
  0
SPLINE
  5
113
100
AcDbEntity
  8
0
370
               5
390
0
  6
Continuous
 62
               7
100
AcDbSpline
210
0.0
220
0.0
230
1.0
 70
               8
 71
               2
 72
               8
 73
               5
 74
               0
 42
0.000001
 43
0.000001
 40
0.0
 40
0.0
 40
0.0
 40
1.0
 40
2.0
 40
3.0
 40
3.0
 40
3.0
 10
10398.0
 20
1000.0
 30
0.0
 10
10385.674000000001
 20
1000.0
 30
0.0
 10
10364.325000000001
 20
986.60199999999998
 30
0.0
 10
10352.0
 20
963.39700000000005
 30
0.0
 10
10352.0
 20
950.0
 30
0.0
  0
SPLINE
  5
114
100
AcDbEntity
  8
0
370
               5
390
0
  6
Continuous
 62
               7
100
AcDbSpline
210
0.0
220
0.0
230
1.0
 70
               8
 71
               2
 72
               8
 73
               5
 74
               0
 42
0.000001
 43
0.000001
 40
0.0
 40
0.0
 40
0.0
 40
1.0
 40
2.0
 40
3.0
 40
3.0
 40
3.0
 10
10300.0
 20
902.0
 30
0.0
 10
10313.933000000001
 20
902.0
 30
0.0
 10
10338.066000000001
 20
914.86099999999999
 30
0.0
 10
10352.0
 20
937.13800000000003
 30
0.0
 10
10352.0
 20
950.0
 30
0.0
  0
SPLINE
  5
115
100
AcDbEntity
  8
0
370
               5
390
0
  6
Continuous
 62
               7
100
AcDbSpline
210
0.0
220
0.0
230
1.0
 70
               8
 71
               2
 72
               8
 73
               5
 74
               0
 42
0.000001
 43
0.000001
 40
0.0
 40
0.0
 40
0.0
 40
1.0
 40
2.0
 40
3.0
 40
3.0
 40
3.0
 10
10248.0
 20
950.0
 30
0.0
 10
10248.0
 20
937.13800000000003
 30
0.0
 10
10261.933000000001
 20
914.86099999999999
 30
0.0
 10
10286.066000000001
 20
902.0
 30
0.0
 10
10300.0
 20
902.0
 30
0.0
  0
SPLINE
  5
116
100
AcDbEntity
  8
0
370
               5
390
0
  6
Continuous
 62
               7
100
AcDbSpline
210
0.0
220
0.0
230
1.0
 70
               8
 71
               2
 72
               8
 73
               5
 74
               0
 42
0.000001
 43
0.000001
 40
0.0
 40
0.0
 40
0.0
 40
1.0
 40
2.0
 40
3.0
 40
3.0
 40
3.0
 10
10248.0
 20
950.0
 30
0.0
 10
10248.0
 20
962.86099999999999
 30
0.0
 10
10234.066000000001
 20
985.13800000000003
 30
0.0
 10
10209.933000000001
 20
998.0
 30
0.0
 10
10196.0
 20
998.0
 30
0.0
  0
ARC
  5
117
100
AcDbEntity
  8
0
370
               5
390
0
  6
Continuous
 62
               7
100
AcDbCircle
 10
10196.0
 20
952.0
 30
0.0
 40
46.0
100
AcDbArc
 50
90.0
 51
180.0
  0
ARC
  5
118
100
AcDbEntity
  8
0
370
               5
390
0
  6
Continuous
 62
               7
100
AcDbCircle
 10
10100.0
 20
952.0
 30
0.0
 40
50.0
100
AcDbArc
 50
270.0
 51
0.0
  0
SPLINE
  5
119
100
AcDbEntity
  8
0
370
               5
390
0
  6
Continuous
 62
               7
100
AcDbSpline
210
0.0
220
0.0
230
1.0
 70
               8
 71
               2
 72
               8
 73
               5
 74
               0
 42
0.000001
 43
0.000001
 40
0.0
 40
0.0
 40
0.0
 40
1.0
 40
2.0
 40
3.0
 40
3.0
 40
3.0
 10
10052.0
 20
948.0
 30
0.0
 10
10052.0
 20
935.67399999999998
 30
0.0
 10
10064.861000000001
 20
914.32500000000005
 30
0.0
 10
10087.138000000001
 20
902.0
 30
0.0
 10
10100.0
 20
902.0
 30
0.0
  0
LINE
  5
11A
100
AcDbEntity
  8
0
370
               5
390
0
  6
Continuous
 62
               7
100
AcDbLine
 10
10350.0
 20
700.0
 30
0.0
 11
12550.0
 21
700.0
 31
0.0
  0
LINE
  5
11B
100
AcDbEntity
  8
0
370
               5
390
0
  6
Continuous
 62
               7
100
AcDbLine
 10
10050.0
 20
300.0
 30
0.0
 11
12550.0
 21
300.0
 31
0.0
  0
LINE
  5
11C
100
AcDbEntity
  8
0
370
               5
390
0
  6
Continuous
 62
               7
100
AcDbLine
 10
10050.0
 20
-1000.0
 30
0.0
 11
12550.0
 21
-1000.0
 31
0.0
  0
LINE
  5
11D
100
AcDbEntity
  8
0
370
               5
390
0
  6
Continuous
 62
               7
100
AcDbLine
 10
10050.0
 20
-500.0
 30
0.0
 11
12550.0
 21
-500.0
 31
0.0
  0
LINE
  5
11E
100
AcDbEntity
  8
0
370
               5
390
0
  6
Continuous
 62
               7
100
AcDbLine
 10
10050.0
 20
-100.0
 30
0.0
 11
12550.0
 21
-100.0
 31
0.0
  0
SPLINE
  5
11F
100
AcDbEntity
  8
0
370
               5
390
0
  6
Continuous
 62
               7
100
AcDbSpline
210
0.0
220
0.0
230
1.0
 70
               8
 71
               2
 72
               8
 73
               5
 74
               0
 42
0.000001
 43
0.000001
 40
0.0
 40
0.0
 40
0.0
 40
1.0
 40
2.0
 40
3.0
 40
3.0
 40
3.0
 10
10050.0
 20
-300.0
 30
0.0
 10
10050.0
 20
-313.39699999999999
 30
0.0
 10
10064.737000000001
 20
-336.60200000000003
 30
0.0
 10
10090.262000000001
 20
-350.0
 30
0.0
 10
10105.0
 20
-350.0
 30
0.0
  0
SPLINE
  5
120
100
AcDbEntity
  8
0
370
               5
390
0
  6
Continuous
 62
               7
100
AcDbSpline
210
0.0
220
0.0
230
1.0
 70
               8
 71
               2
 72
               8
 73
               5
 74
               0
 42
0.000001
 43
0.000001
 40
0.0
 40
0.0
 40
0.0
 40
1.0
 40
2.0
 40
3.0
 40
3.0
 40
3.0
 10
10105.0
 20
-350.0
 30
0.0
 10
10117.057000000001
 20
-350.0
 30
0.0
 10
10137.942000000001
 20
-336.60200000000003
 30
0.0
 10
10150.0
 20
-313.39699999999999
 30
0.0
 10
10150.0
 20
-300.0
 30
0.0
  0
ARC
  5
121
100
AcDbEntity
  8
0
370
               5
390
0
  6
Continuous
 62
               7
100
AcDbCircle
 10
10200.0
 20
-300.0
 30
0.0
 40
50.0
100
AcDbArc
 50
90.0
 51
180.0
  0
ARC
  5
122
100
AcDbEntity
  8
0
370
               5
390
0
  6
Continuous
 62
               7
100
AcDbCircle
 10
10200.0
 20
-300.0
 30
0.0
 40
50.0
100
AcDbArc
 50
0.0
 51
90.0
  0
ARC
  5
123
100
AcDbEntity
  8
0
370
               5
390
0
  6
Continuous
 62
               7
100
AcDbCircle
 10
10300.0
 20
-300.0
 30
0.0
 40
50.0
100
AcDbArc
 50
180.0
 51
270.0
  0
ARC
  5
124
100
AcDbEntity
  8
0
370
               5
390
0
  6
Continuous
 62
               7
100
AcDbCircle
 10
10300.0
 20
-300.0
 30
0.0
 40
50.0
100
AcDbArc
 50
270.0
 51
0.0
  0
ARC
  5
125
100
AcDbEntity
  8
0
370
               5
390
0
  6
Continuous
 62
               7
100
AcDbCircle
 10
10400.0
 20
-300.0
 30
0.0
 40
50.0
100
AcDbArc
 50
90.0
 51
180.0
  0
ARC
  5
126
100
AcDbEntity
  8
0
370
               5
390
0
  6
Continuous
 62
               7
100
AcDbCircle
 10
10400.0
 20
-300.0
 30
0.0
 40
50.0
100
AcDbArc
 50
0.0
 51
90.0
  0
ARC
  5
127
100
AcDbEntity
  8
0
370
               5
390
0
  6
Continuous
 62
               7
100
AcDbCircle
 10
10500.0
 20
-300.0
 30
0.0
 40
50.0
100
AcDbArc
 50
180.0
 51
270.0
  0
ARC
  5
128
100
AcDbEntity
  8
0
370
               5
390
0
  6
Continuous
 62
               7
100
AcDbCircle
 10
10500.0
 20
-300.0
 30
0.0
 40
50.0
100
AcDbArc
 50
270.0
 51
0.0
  0
ARC
  5
129
100
AcDbEntity
  8
0
370
               5
390
0
  6
Continuous
 62
               7
100
AcDbCircle
 10
10600.0
 20
-300.0
 30
0.0
 40
50.0
100
AcDbArc
 50
90.0
 51
180.0
  0
ARC
  5
12A
100
AcDbEntity
  8
0
370
               5
390
0
  6
Continuous
 62
               7
100
AcDbCircle
 10
10600.0
 20
-300.0
 30
0.0
 40
50.0
100
AcDbArc
 50
0.0
 51
90.0
  0
ARC
  5
12B
100
AcDbEntity
  8
0
370
               5
390
0
  6
Continuous
 62
               7
100
AcDbCircle
 10
10700.0
 20
-300.0
 30
0.0
 40
50.0
100
AcDbArc
 50
180.0
 51
270.0
  0
ARC
  5
12C
100
AcDbEntity
  8
0
370
               5
390
0
  6
Continuous
 62
               7
100
AcDbCircle
 10
10700.0
 20
-300.0
 30
0.0
 40
50.0
100
AcDbArc
 50
270.0
 51
0.0
  0
ARC
  5
12D
100
AcDbEntity
  8
0
370
               5
390
0
  6
Continuous
 62
               7
100
AcDbCircle
 10
10800.0
 20
-300.0
 30
0.0
 40
50.0
100
AcDbArc
 50
90.0
 51
180.0
  0
ARC
  5
12E
100
AcDbEntity
  8
0
370
               5
390
0
  6
Continuous
 62
               7
100
AcDbCircle
 10
10800.0
 20
-300.0
 30
0.0
 40
50.0
100
AcDbArc
 50
0.0
 51
90.0
  0
SPLINE
  5
12F
100
AcDbEntity
  8
0
370
               5
390
0
  6
Continuous
 62
               7
100
AcDbSpline
210
0.0
220
0.0
230
1.0
 70
               8
 71
               2
 72
               8
 73
               5
 74
               0
 42
0.000001
 43
0.000001
 40
0.0
 40
0.0
 40
0.0
 40
1.0
 40
2.0
 40
3.0
 40
3.0
 40
3.0
 10
10850.0
 20
-300.0
 30
0.0
 10
10850.0
 20
-313.39699999999999
 30
0.0
 10
10864.737000000001
 20
-336.60200000000003
 30
0.0
 10
10890.262000000001
 20
-350.0
 30
0.0
 10
10905.0
 20
-350.0
 30
0.0
  0
SPLINE
  5
130
100
AcDbEntity
  8
0
370
               5
390
0
  6
Continuous
 62
               7
100
AcDbSpline
210
0.0
220
0.0
230
1.0
 70
               8
 71
               2
 72
               8
 73
               5
 74
               0
 42
0.000001
 43
0.000001
 40
0.0
 40
0.0
 40
0.0
 40
1.0
 40
2.0
 40
3.0
 40
3.0
 40
3.0
 10
10905.0
 20
-350.0
 30
0.0
 10
10917.057000000001
 20
-350.0
 30
0.0
 10
10937.942000000001
 20
-336.60200000000003
 30
0.0
 10
10950.0
 20
-313.39699999999999
 30
0.0
 10
10950.0
 20
-300.0
 30
0.0
  0
ARC
  5
131
100
AcDbEntity
  8
0
370
               5
390
0
  6
Continuous
 62
               7
100
AcDbCircle
 10
11000.0
 20
-300.0
 30
0.0
 40
50.0
100
AcDbArc
 50
90.0
 51
180.0
  0
SPLINE
  5
132
100
AcDbEntity
  8
0
370
               5
390
0
  6
Continuous
 62
               7
100
AcDbSpline
210
0.0
220
0.0
230
1.0
 70
               8
 71
               2
 72
               8
 73
               5
 74
               0
 42
0.000001
 43
0.000001
 40
0.0
 40
0.0
 40
0.0
 40
1.0
 40
2.0
 40
3.0
 40
3.0
 40
3.0
 10
11050.0
 20
-295.0
 30
0.0
 10
11050.0
 20
-282.94200000000001
 30
0.0
 10
11036.602000000001
 20
-262.05700000000002
 30
0.0
 10
11013.397000000001
 20
-250.0
 30
0.0
 10
11000.0
 20
-250.0
 30
0.0
  0
ARC
  5
133
100
AcDbEntity
  8
0
370
               5
390
0
  6
Continuous
 62
               7
100
AcDbCircle
 10
11105.0
 20
-295.0
 30
0.0
 40
55.0
100
AcDbArc
 50
180.0
 51
270.0
  0
SPLINE
  5
134
100
AcDbEntity
  8
0
370
               5
390
0
  6
Continuous
 62
               7
100
AcDbSpline
210
0.0
220
0.0
230
1.0
 70
               8
 71
               2
 72
               8
 73
               5
 74
               0
 42
0.000001
 43
0.000001
 40
0.0
 40
0.0
 40
0.0
 40
1.0
 40
2.0
 40
3.0
 40
3.0
 40
3.0
 10
11105.0
 20
-350.0
 30
0.0
 10
11115.717000000001
 20
-350.0
 30
0.0
 10
11134.282000000001
 20
-336.60200000000003
 30
0.0
 10
11145.0
 20
-313.39699999999999
 30
0.0
 10
11145.0
 20
-300.0
 30
0.0
  0
SPLINE
  5
135
100
AcDbEntity
  8
0
370
               5
390
0
  6
Continuous
 62
               7
100
AcDbSpline
210
0.0
220
0.0
230
1.0
 70
               8
 71
               2
 72
               8
 73
               5
 74
               0
 42
0.000001
 43
0.000001
 40
0.0
 40
0.0
 40
0.0
 40
1.0
 40
2.0
 40
3.0
 40
3.0
 40
3.0
 10
11200.0
 20
-250.0
 30
0.0
 10
11185.262000000001
 20
-250.0
 30
0.0
 10
11159.737000000001
 20
-263.39699999999999
 30
0.0
 10
11145.0
 20
-286.60200000000003
 30
0.0
 10
11145.0
 20
-300.0
 30
0.0
  0
ARC
  5
136
100
AcDbEntity
  8
0
370
               5
390
0
  6
Continuous
 62
               7
100
AcDbCircle
 10
11200.0
 20
-300.0
 30
0.0
 40
50.0
100
AcDbArc
 50
0.0
 51
90.0
  0
ARC
  5
137
100
AcDbEntity
  8
0
370
               5
390
0
  6
Continuous
 62
               7
100
AcDbCircle
 10
11300.0
 20
-300.0
 30
0.0
 40
50.0
100
AcDbArc
 50
180.0
 51
270.0
  0
ARC
  5
138
100
AcDbEntity
  8
0
370
               5
390
0
  6
Continuous
 62
               7
100
AcDbCircle
 10
11300.0
 20
-300.0
 30
0.0
 40
50.0
100
AcDbArc
 50
270.0
 51
0.0
  0
ARC
  5
139
100
AcDbEntity
  8
0
370
               5
390
0
  6
Continuous
 62
               7
100
AcDbCircle
 10
11400.0
 20
-300.0
 30
0.0
 40
50.0
100
AcDbArc
 50
90.0
 51
180.0
  0
ARC
  5
13A
100
AcDbEntity
  8
0
370
               5
390
0
  6
Continuous
 62
               7
100
AcDbCircle
 10
11400.0
 20
-300.0
 30
0.0
 40
50.0
100
AcDbArc
 50
0.0
 51
90.0
  0
ARC
  5
13B
100
AcDbEntity
  8
0
370
               5
390
0
  6
Continuous
 62
               7
100
AcDbCircle
 10
11500.0
 20
-300.0
 30
0.0
 40
50.0
100
AcDbArc
 50
180.0
 51
270.0
  0
ARC
  5
13C
100
AcDbEntity
  8
0
370
               5
390
0
  6
Continuous
 62
               7
100
AcDbCircle
 10
11500.0
 20
-300.0
 30
0.0
 40
50.0
100
AcDbArc
 50
270.0
 51
0.0
  0
ARC
  5
13D
100
AcDbEntity
  8
0
370
               5
390
0
  6
Continuous
 62
               7
100
AcDbCircle
 10
11600.0
 20
-300.0
 30
0.0
 40
50.0
100
AcDbArc
 50
90.0
 51
180.0
  0
ARC
  5
13E
100
AcDbEntity
  8
0
370
               5
390
0
  6
Continuous
 62
               7
100
AcDbCircle
 10
11600.0
 20
-300.0
 30
0.0
 40
50.0
100
AcDbArc
 50
0.0
 51
90.0
  0
SPLINE
  5
13F
100
AcDbEntity
  8
0
370
               5
390
0
  6
Continuous
 62
               7
100
AcDbSpline
210
0.0
220
0.0
230
1.0
 70
               8
 71
               2
 72
               8
 73
               5
 74
               0
 42
0.000001
 43
0.000001
 40
0.0
 40
0.0
 40
0.0
 40
1.0
 40
2.0
 40
3.0
 40
3.0
 40
3.0
 10
11650.0
 20
-300.0
 30
0.0
 10
11650.0
 20
-313.39699999999999
 30
0.0
 10
11664.737000000001
 20
-336.60200000000003
 30
0.0
 10
11690.262000000001
 20
-350.0
 30
0.0
 10
11705.0
 20
-350.0
 30
0.0
  0
SPLINE
  5
140
100
AcDbEntity
  8
0
370
               5
390
0
  6
Continuous
 62
               7
100
AcDbSpline
210
0.0
220
0.0
230
1.0
 70
               8
 71
               2
 72
               8
 73
               5
 74
               0
 42
0.000001
 43
0.000001
 40
0.0
 40
0.0
 40
0.0
 40
1.0
 40
2.0
 40
3.0
 40
3.0
 40
3.0
 10
11705.0
 20
-350.0
 30
0.0
 10
11717.057000000001
 20
-350.0
 30
0.0
 10
11737.942000000001
 20
-336.60200000000003
 30
0.0
 10
11750.0
 20
-313.39699999999999
 30
0.0
 10
11750.0
 20
-300.0
 30
0.0
  0
ARC
  5
141
100
AcDbEntity
  8
0
370
               5
390
0
  6
Continuous
 62
               7
100
AcDbCircle
 10
11800.0
 20
-300.0
 30
0.0
 40
50.0
100
AcDbArc
 50
90.0
 51
180.0
  0
ARC
  5
142
100
AcDbEntity
  8
0
370
               5
390
0
  6
Continuous
 62
               7
100
AcDbCircle
 10
11800.0
 20
-300.0
 30
0.0
 40
50.0
100
AcDbArc
 50
0.0
 51
90.0
  0
SPLINE
  5
143
100
AcDbEntity
  8
0
370
               5
390
0
  6
Continuous
 62
               7
100
AcDbSpline
210
0.0
220
0.0
230
1.0
 70
               8
 71
               2
 72
               8
 73
               5
 74
               0
 42
0.000001
 43
0.000001
 40
0.0
 40
0.0
 40
0.0
 40
1.0
 40
2.0
 40
3.0
 40
3.0
 40
3.0
 10
11850.0
 20
-300.0
 30
0.0
 10
11850.0
 20
-313.39699999999999
 30
0.0
 10
11864.737000000001
 20
-336.60200000000003
 30
0.0
 10
11890.262000000001
 20
-350.0
 30
0.0
 10
11905.0
 20
-350.0
 30
0.0
  0
SPLINE
  5
144
100
AcDbEntity
  8
0
370
               5
390
0
  6
Continuous
 62
               7
100
AcDbSpline
210
0.0
220
0.0
230
1.0
 70
               8
 71
               2
 72
               8
 73
               5
 74
               0
 42
0.000001
 43
0.000001
 40
0.0
 40
0.0
 40
0.0
 40
1.0
 40
2.0
 40
3.0
 40
3.0
 40
3.0
 10
11905.0
 20
-350.0
 30
0.0
 10
11917.057000000001
 20
-350.0
 30
0.0
 10
11937.942000000001
 20
-336.60200000000003
 30
0.0
 10
11950.0
 20
-313.39699999999999
 30
0.0
 10
11950.0
 20
-300.0
 30
0.0
  0
ARC
  5
145
100
AcDbEntity
  8
0
370
               5
390
0
  6
Continuous
 62
               7
100
AcDbCircle
 10
12000.0
 20
-300.0
 30
0.0
 40
50.0
100
AcDbArc
 50
90.0
 51
180.0
  0
ARC
  5
146
100
AcDbEntity
  8
0
370
               5
390
0
  6
Continuous
 62
               7
100
AcDbCircle
 10
12000.0
 20
-300.0
 30
0.0
 40
50.0
100
AcDbArc
 50
0.0
 51
90.0
  0
SPLINE
  5
147
100
AcDbEntity
  8
0
370
               5
390
0
  6
Continuous
 62
               7
100
AcDbSpline
210
0.0
220
0.0
230
1.0
 70
               8
 71
               2
 72
               8
 73
               5
 74
               0
 42
0.000001
 43
0.000001
 40
0.0
 40
0.0
 40
0.0
 40
1.0
 40
2.0
 40
3.0
 40
3.0
 40
3.0
 10
12050.0
 20
-300.0
 30
0.0
 10
12050.0
 20
-313.39699999999999
 30
0.0
 10
12064.737000000001
 20
-336.60200000000003
 30
0.0
 10
12090.262000000001
 20
-350.0
 30
0.0
 10
12105.0
 20
-350.0
 30
0.0
  0
SPLINE
  5
148
100
AcDbEntity
  8
0
370
               5
390
0
  6
Continuous
 62
               7
100
AcDbSpline
210
0.0
220
0.0
230
1.0
 70
               8
 71
               2
 72
               8
 73
               5
 74
               0
 42
0.000001
 43
0.000001
 40
0.0
 40
0.0
 40
0.0
 40
1.0
 40
2.0
 40
3.0
 40
3.0
 40
3.0
 10
12105.0
 20
-350.0
 30
0.0
 10
12117.057000000001
 20
-350.0
 30
0.0
 10
12137.942000000001
 20
-336.60200000000003
 30
0.0
 10
12150.0
 20
-313.39699999999999
 30
0.0
 10
12150.0
 20
-300.0
 30
0.0
  0
ARC
  5
149
100
AcDbEntity
  8
0
370
               5
390
0
  6
Continuous
 62
               7
100
AcDbCircle
 10
12200.0
 20
-300.0
 30
0.0
 40
50.0
100
AcDbArc
 50
90.0
 51
180.0
  0
ARC
  5
14A
100
AcDbEntity
  8
0
370
               5
390
0
  6
Continuous
 62
               7
100
AcDbCircle
 10
12200.0
 20
-300.0
 30
0.0
 40
50.0
100
AcDbArc
 50
0.0
 51
90.0
  0
SPLINE
  5
14B
100
AcDbEntity
  8
0
370
               5
390
0
  6
Continuous
 62
               7
100
AcDbSpline
210
0.0
220
0.0
230
1.0
 70
               8
 71
               2
 72
               8
 73
               5
 74
               0
 42
0.000001
 43
0.000001
 40
0.0
 40
0.0
 40
0.0
 40
1.0
 40
2.0
 40
3.0
 40
3.0
 40
3.0
 10
12250.0
 20
-300.0
 30
0.0
 10
12250.0
 20
-313.39699999999999
 30
0.0
 10
12264.737000000001
 20
-336.60200000000003
 30
0.0
 10
12290.262000000001
 20
-350.0
 30
0.0
 10
12305.0
 20
-350.0
 30
0.0
  0
SPLINE
  5
14C
100
AcDbEntity
  8
0
370
               5
390
0
  6
Continuous
 62
               7
100
AcDbSpline
210
0.0
220
0.0
230
1.0
 70
               8
 71
               2
 72
               8
 73
               5
 74
               0
 42
0.000001
 43
0.000001
 40
0.0
 40
0.0
 40
0.0
 40
1.0
 40
2.0
 40
3.0
 40
3.0
 40
3.0
 10
12305.0
 20
-350.0
 30
0.0
 10
12317.057000000001
 20
-350.0
 30
0.0
 10
12337.942000000001
 20
-336.60200000000003
 30
0.0
 10
12350.0
 20
-313.39699999999999
 30
0.0
 10
12350.0
 20
-300.0
 30
0.0
  0
ARC
  5
14D
100
AcDbEntity
  8
0
370
               5
390
0
  6
Continuous
 62
               7
100
AcDbCircle
 10
12400.0
 20
-300.0
 30
0.0
 40
50.0
100
AcDbArc
 50
90.0
 51
180.0
  0
ARC
  5
14E
100
AcDbEntity
  8
0
370
               5
390
0
  6
Continuous
 62
               7
100
AcDbCircle
 10
12400.0
 20
-300.0
 30
0.0
 40
50.0
100
AcDbArc
 50
0.0
 51
90.0
  0
SPLINE
  5
14F
100
AcDbEntity
  8
0
370
               5
390
0
  6
Continuous
 62
               7
100
AcDbSpline
210
0.0
220
0.0
230
1.0
 70
               8
 71
               2
 72
               8
 73
               5
 74
               0
 42
0.000001
 43
0.000001
 40
0.0
 40
0.0
 40
0.0
 40
1.0
 40
2.0
 40
3.0
 40
3.0
 40
3.0
 10
12450.0
 20
-300.0
 30
0.0
 10
12450.0
 20
-313.39699999999999
 30
0.0
 10
12464.737000000001
 20
-336.60200000000003
 30
0.0
 10
12490.262000000001
 20
-350.0
 30
0.0
 10
12505.0
 20
-350.0
 30
0.0
  0
SPLINE
  5
150
100
AcDbEntity
  8
0
370
               5
390
0
  6
Continuous
 62
               7
100
AcDbSpline
210
0.0
220
0.0
230
1.0
 70
               8
 71
               2
 72
               8
 73
               5
 74
               0
 42
0.000001
 43
0.000001
 40
0.0
 40
0.0
 40
0.0
 40
1.0
 40
2.0
 40
3.0
 40
3.0
 40
3.0
 10
12505.0
 20
-350.0
 30
0.0
 10
12517.057000000001
 20
-350.0
 30
0.0
 10
12537.942000000001
 20
-336.60200000000003
 30
0.0
 10
12550.0
 20
-313.39699999999999
 30
0.0
 10
12550.0
 20
-300.0
 30
0.0
  0
WIPEOUT
  5
151
100
AcDbEntity
  8
0
370
               5
390
0
  6
Continuous
 62
               7
 92
        0
100
AcDbWipeout
 90
        0
 10
12620.755999999999
 20
6590.7839999999997
 30
0.0
 11
1270.0020186106358
 21
0.0
 31
0.0
 12
0.0
 22
1270.0020186106358
 32
0.0
 13
1.0
 23
1.0
340
0
 70
               7
280
               1
281
              50
282
              50
283
               0
360
0
 71
               2
 91
        5
 14
-0.5
 24
0.5
 14
0.5
 24
0.5
 14
0.5
 24
0.3333333357756698
 14
-0.5
 24
0.3333333357756698
 14
-0.5
 24
0.5
  0
MTEXT
  5
152
100
AcDbEntity
  8
0
390
0
 62
               7
100
AcDbMText
 10
12620.755999999999
 20
6783.3017510937498
 30
0.0
 40
185.20862500000001
 41
0.0
 71
               1
 72
               1
  1
{\H0.8795x;\lホリゾント幕}
 73
               1
 44
0.7828267384257842
  0
WIPEOUT
  5
153
100
AcDbEntity
  8
0
370
               5
390
0
  6
Continuous
 62
               7
 92
        0
100
AcDbWipeout
 90
        0
 10
12640.755999999999
 20
6086.6610000000001
 30
0.0
 11
1058.3350155088647
 21
0.0
 31
0.0
 12
0.0
 22
1058.3350155088647
 32
0.0
 13
1.0
 23
1.0
340
0
 70
               7
280
               1
281
              50
282
              50
283
               0
360
0
 71
               2
 91
        5
 14
-0.5
 24
0.5
 14
0.5
 24
0.5
 14
0.5
 24
0.3000000029308041
 14
-0.5
 24
0.3000000029308041
 14
-0.5
 24
0.5
  0
MTEXT
  5
154
100
AcDbEntity
  8
0
390
0
 62
               7
100
AcDbMText
 10
12640.755999999999
 20
6279.1787510937502
 30
0.0
 40
185.20862500000001
 41
0.0
 71
               1
 72
               1
  1
{\H0.8795x;\l大　黒　幕}
 73
               1
 44
0.7828267384257842
  0
WIPEOUT
  5
155
100
AcDbEntity
  8
0
370
               5
390
0
  6
Continuous
 62
               7
 92
        0
100
AcDbWipeout
 90
        0
 10
12686.111000000001
 20
5700.0
 30
0.0
 11
846.66801240709174
 21
0.0
 31
0.0
 12
0.0
 22
846.66801240709174
 32
0.0
 13
1.0
 23
1.0
340
0
 70
               7
280
               1
281
              50
282
              50
283
               0
360
0
 71
               2
 91
        5
 14
-0.5
 24
0.5
 14
0.5
 24
0.5
 14
0.5
 24
0.2500000036635051
 14
-0.5
 24
0.2500000036635051
 14
-0.5
 24
0.5
  0
MTEXT
  5
156
100
AcDbEntity
  8
0
390
0
 62
               7
100
AcDbMText
 10
12686.111000000001
 20
5892.5177510937501
 30
0.0
 40
185.20862500000001
 41
0.0
 71
               1
 72
               1
  1
{\H0.8795x;\lバトン５}
 73
               1
 44
0.7828267384257842
  0
WIPEOUT
  5
157
100
AcDbEntity
  8
0
370
               5
390
0
  6
Continuous
 62
               7
 92
        0
100
AcDbWipeout
 90
        0
 10
12700.755999999999
 20
4900.7429999999995
 30
0.0
 11
740.83454449971578
 21
0.0
 31
0.0
 12
0.0
 22
740.83454449971578
 32
0.0
 13
1.0
 23
1.0
340
0
 70
               7
280
               1
281
              50
282
              50
283
               0
360
0
 71
               2
 91
        5
 14
-0.5
 24
0.5
 14
0.5
 24
0.5
 14
0.5
 24
0.2142857314477166
 14
-0.5
 24
0.2142857314477166
 14
-0.5
 24
0.5
  0
MTEXT
  5
158
100
AcDbEntity
  8
0
390
0
 62
               7
100
AcDbMText
 10
12700.755999999999
 20
5093.2607510937496
 30
0.0
 40
185.20862500000001
 41
0.0
 71
               1
 72
               1
  1
{\H0.8795x;\lU  H  L}
 73
               1
 44
0.7828267384257842
  0
WIPEOUT
  5
159
100
AcDbEntity
  8
0
370
               5
390
0
  6
Continuous
 62
               7
 92
        0
100
AcDbWipeout
 90
        0
 10
12650.755999999999
 20
4674.049
 30
0.0
 11
846.66801240709174
 21
0.0
 31
0.0
 12
0.0
 22
846.66801240709174
 32
0.0
 13
1.0
 23
1.0
340
0
 70
               7
280
               1
281
              50
282
              50
283
               0
360
0
 71
               2
 91
        5
 14
-0.5
 24
0.5
 14
0.5
 24
0.5
 14
0.5
 24
0.2500000036635051
 14
-0.5
 24
0.2500000036635051
 14
-0.5
 24
0.5
  0
MTEXT
  5
15A
100
AcDbEntity
  8
0
390
0
 62
               7
100
AcDbMText
 10
12650.755999999999
 20
4866.5667510937501
 30
0.0
 40
185.20862500000001
 41
0.0
 71
               1
 72
               1
  1
{\H0.8795x;\lカスミ３}
 73
               1
 44
0.7828267384257842
  0
WIPEOUT
  5
15B
100
AcDbEntity
  8
0
370
               5
390
0
  6
Continuous
 62
               7
 92
        0
100
AcDbWipeout
 90
        0
 10
12641.0
 20
4448.4569999999994
 30
0.0
 11
952.50154760148871
 21
0.0
 31
0.0
 12
0.0
 22
952.50154760148871
 32
0.0
 13
1.0
 23
1.0
340
0
 70
               7
280
               1
281
              50
282
              50
283
               0
360
0
 71
               2
 91
        5
 14
-0.5
 24
0.5
 14
0.5
 24
0.5
 14
0.5
 24
0.2777777888833852
 14
-0.5
 24
0.2777777888833852
 14
-0.5
 24
0.5
  0
MTEXT
  5
15C
100
AcDbEntity
  8
0
390
0
 62
               7
100
AcDbMText
 10
12641.0
 20
4640.9747510937495
 30
0.0
 40
185.20862500000001
 41
0.0
 71
               1
 72
               1
  1
{\H0.8795x;\l袖　幕　3}
 73
               1
 44
0.7828267384257842
  0
WIPEOUT
  5
15D
100
AcDbEntity
  8
0
370
               5
390
0
  6
Continuous
 62
               7
 92
        0
100
AcDbWipeout
 90
        0
 10
12620.755999999999
 20
3918.2930000000001
 30
0.0
 11
1058.3350155088647
 21
0.0
 31
0.0
 12
0.0
 22
1058.3350155088647
 32
0.0
 13
1.0
 23
1.0
340
0
 70
               7
280
               1
281
              50
282
              50
283
               0
360
0
 71
               2
 91
        5
 14
-0.5
 24
0.5
 14
0.5
 24
0.5
 14
0.5
 24
0.3000000029308045
 14
-0.5
 24
0.3000000029308045
 14
-0.5
 24
0.5
  0
MTEXT
  5
15E
100
AcDbEntity
  8
0
390
0
 62
               7
100
AcDbMText
 10
12620.755999999999
 20
4110.8107510937498
 30
0.0
 40
185.20862500000001
 41
0.0
 71
               1
 72
               1
  1
{\H0.8795x;\l正面反射板}
 73
               1
 44
0.7828267384257842
  0
WIPEOUT
  5
15F
100
AcDbEntity
  8
0
370
               5
390
0
  6
Continuous
 62
               7
 92
        0
100
AcDbWipeout
 90
        0
 10
12601.368
 20
3463.4360000000001
 30
0.0
 11
846.66801240709174
 21
0.0
 31
0.0
 12
0.0
 22
846.66801240709174
 32
0.0
 13
1.0
 23
1.0
340
0
 70
               7
280
               1
281
              50
282
              50
283
               0
360
0
 71
               2
 91
        5
 14
-0.5
 24
0.5
 14
0.5
 24
0.5
 14
0.5
 24
0.2500000036635056
 14
-0.5
 24
0.2500000036635056
 14
-0.5
 24
0.5
  0
MTEXT
  5
160
100
AcDbEntity
  8
0
390
0
 62
               7
100
AcDbMText
 10
12601.368
 20
3655.9537510937503
 30
0.0
 40
185.20862500000001
 41
0.0
 71
               1
 72
               1
  1
{\H0.8795x;\lバトン４}
 73
               1
 44
0.7828267384257842
  0
WIPEOUT
  5
161
100
AcDbEntity
  8
0
370
               5
390
0
  6
Continuous
 62
               7
 92
        0
100
AcDbWipeout
 90
        0
 10
12650.755999999999
 20
2781.8850000000002
 30
0.0
 11
740.83454449971578
 21
0.0
 31
0.0
 12
0.0
 22
740.83454449971578
 32
0.0
 13
1.0
 23
1.0
340
0
 70
               7
280
               1
281
              50
282
              50
283
               0
360
0
 71
               2
 91
        5
 14
-0.5
 24
0.5
 14
0.5
 24
0.5
 14
0.5
 24
0.2142857314477172
 14
-0.5
 24
0.2142857314477172
 14
-0.5
 24
0.5
  0
MTEXT
  5
162
100
AcDbEntity
  8
0
390
0
 62
               7
100
AcDbMText
 10
12650.755999999999
 20
2974.4027510937503
 30
0.0
 40
185.20862500000001
 41
0.0
 71
               1
 72
               1
  1
{\H0.8795x;\lS  L  2}
 73
               1
 44
0.7828267384257842
  0
WIPEOUT
  5
163
100
AcDbEntity
  8
0
370
               5
390
0
  6
Continuous
 62
               7
 92
        0
100
AcDbWipeout
 90
        0
 10
12656.666999999999
 20
2384.1660000000002
 30
0.0
 11
740.83454449971578
 21
0.0
 31
0.0
 12
0.0
 22
740.83454449971578
 32
0.0
 13
1.0
 23
1.0
340
0
 70
               7
280
               1
281
              50
282
              50
283
               0
360
0
 71
               2
 91
        5
 14
-0.5
 24
0.5
 14
0.5
 24
0.5
 14
0.5
 24
0.2142857314477172
 14
-0.5
 24
0.2142857314477172
 14
-0.5
 24
0.5
  0
MTEXT
  5
164
100
AcDbEntity
  8
0
390
0
 62
               7
100
AcDbMText
 10
12656.666999999999
 20
2576.6837510937503
 30
0.0
 40
185.20862500000001
 41
0.0
 71
               1
 72
               1
  1
{\H0.8795x;\lB  L  2}
 73
               1
 44
0.7828267384257842
  0
WIPEOUT
  5
165
100
AcDbEntity
  8
0
370
               5
390
0
  6
Continuous
 62
               7
 92
        0
100
AcDbWipeout
 90
        0
 10
12631.0
 20
2184.2930000000001
 30
0.0
 11
846.66801240709174
 21
0.0
 31
0.0
 12
0.0
 22
846.66801240709174
 32
0.0
 13
1.0
 23
1.0
340
0
 70
               7
280
               1
281
              50
282
              50
283
               0
360
0
 71
               2
 91
        5
 14
-0.5
 24
0.5
 14
0.5
 24
0.5
 14
0.5
 24
0.2500000036635056
 14
-0.5
 24
0.2500000036635056
 14
-0.5
 24
0.5
  0
MTEXT
  5
166
100
AcDbEntity
  8
0
390
0
 62
               7
100
AcDbMText
 10
12631.0
 20
2376.8107510937502
 30
0.0
 40
185.20862500000001
 41
0.0
 71
               1
 72
               1
  1
{\H0.8795x;\lカスミ２}
 73
               1
 44
0.7828267384257842
  0
WIPEOUT
  5
167
100
AcDbEntity
  8
0
370
               5
390
0
  6
Continuous
 62
               7
 92
        0
100
AcDbWipeout
 90
        0
 10
12650.755999999999
 20
1384.211
 30
0.0
 11
1058.3350155088647
 21
0.0
 31
0.0
 12
0.0
 22
1058.3350155088647
 32
0.0
 13
1.0
 23
1.0
340
0
 70
               7
280
               1
281
              50
282
              50
283
               0
360
0
 71
               2
 91
        5
 14
-0.5
 24
0.5
 14
0.5
 24
0.5
 14
0.5
 24
0.3000000029308045
 14
-0.5
 24
0.3000000029308045
 14
-0.5
 24
0.5
  0
MTEXT
  5
168
100
AcDbEntity
  8
0
390
0
 62
               7
100
AcDbMText
 10
12650.755999999999
 20
1576.7287510937499
 30
0.0
 40
185.20862500000001
 41
0.0
 71
               1
 72
               1
  1
{\H0.8795x;\l天井反射板}
 73
               1
 44
0.7828267384257842
  0
WIPEOUT
  5
169
100
AcDbEntity
  8
0
370
               5
390
0
  6
Continuous
 62
               7
 92
        0
100
AcDbWipeout
 90
        0
 10
12620.834000000001
 20
773.47199999999998
 30
0.0
 11
1058.3350155088647
 21
0.0
 31
0.0
 12
0.0
 22
1058.3350155088647
 32
0.0
 13
1.0
 23
1.0
340
0
 70
               7
280
               1
281
              50
282
              50
283
               0
360
0
 71
               2
 91
        5
 14
-0.5
 24
0.5
 14
0.5
 24
0.5
 14
0.5
 24
0.3000000029308044
 14
-0.5
 24
0.3000000029308044
 14
-0.5
 24
0.5
  0
MTEXT
  5
16A
100
AcDbEntity
  8
0
390
0
 62
               7
100
AcDbMText
 10
12620.834000000001
 20
965.9897510937501
 30
0.0
 40
185.20862500000001
 41
0.0
 71
               1
 72
               1
  1
{\H0.8795x;\l袖　幕　２}
 73
               1
 44
0.7828267384257842
  0
WIPEOUT
  5
16B
100
AcDbEntity
  8
0
370
               5
390
0
  6
Continuous
 62
               7
 92
        0
100
AcDbWipeout
 90
        0
 10
12706.666999999999
 20
354.166
 30
0.0
 11
740.83454449971578
 21
0.0
 31
0.0
 12
0.0
 22
740.83454449971578
 32
0.0
 13
1.0
 23
1.0
340
0
 70
               7
280
               1
281
              50
282
              50
283
               0
360
0
 71
               2
 91
        5
 14
-0.5
 24
0.5
 14
0.5
 24
0.5
 14
0.5
 24
0.2142857314477171
 14
-0.5
 24
0.2142857314477171
 14
-0.5
 24
0.5
  0
MTEXT
  5
16C
100
AcDbEntity
  8
0
390
0
 62
               7
100
AcDbMText
 10
12706.666999999999
 20
546.68375109375006
 30
0.0
 40
185.20862500000001
 41
0.0
 71
               1
 72
               1
  1
{\H0.8795x;\lS  L  1}
 73
               1
 44
0.7828267384257842
  0
WIPEOUT
  5
16D
100
AcDbEntity
  8
0
370
               5
390
0
  6
Continuous
 62
               7
 92
        0
100
AcDbWipeout
 90
        0
 10
12650.633
 20
129.35300000000001
 30
0.0
 11
1270.0020186106358
 21
0.0
 31
0.0
 12
0.0
 22
1270.0020186106358
 32
0.0
 13
1.0
 23
1.0
340
0
 70
               7
280
               1
281
              50
282
              50
283
               0
360
0
 71
               2
 91
        5
 14
-0.5
 24
0.5
 14
0.5
 24
0.5
 14
0.5
 24
0.3333333357756702
 14
-0.5
 24
0.3333333357756702
 14
-0.5
 24
0.5
  0
MTEXT
  5
16E
100
AcDbEntity
  8
0
390
0
 62
               7
100
AcDbMText
 10
12650.633
 20
321.87075109375002
 30
0.0
 40
185.20862500000001
 41
0.0
 71
               1
 72
               1
  1
{\H0.8795x;\lスクリーン枠}
 73
               1
 44
0.7828267384257842
  0
WIPEOUT
  5
16F
100
AcDbEntity
  8
0
370
               5
390
0
  6
Continuous
 62
               7
 92
        0
100
AcDbWipeout
 90
        0
 10
12636.111000000001
 20
-175.83399999999997
 30
0.0
 11
846.66801240709174
 21
0.0
 31
0.0
 12
0.0
 22
846.66801240709174
 32
0.0
 13
1.0
 23
1.0
340
0
 70
               7
280
               1
281
              50
282
              50
283
               0
360
0
 71
               2
 91
        5
 14
-0.5
 24
0.5
 14
0.5
 24
0.5
 14
0.5
 24
0.2500000036635056
 14
-0.5
 24
0.2500000036635056
 14
-0.5
 24
0.5
  0
MTEXT
  5
170
100
AcDbEntity
  8
0
390
0
 62
               7
100
AcDbMText
 10
12636.111000000001
 20
16.683751093750033
 30
0.0
 40
185.20862500000001
 41
0.0
 71
               1
 72
               1
  1
{\H0.8795x;\lバトン１}
 73
               1
 44
0.7828267384257842
  0
WIPEOUT
  5
171
100
AcDbEntity
  8
0
370
               5
390
0
  6
Continuous
 62
               7
 92
        0
100
AcDbWipeout
 90
        0
 10
12660.633
 20
-1416.075
 30
0.0
 11
1058.3350155088647
 21
0.0
 31
0.0
 12
0.0
 22
1058.3350155088647
 32
0.0
 13
1.0
 23
1.0
340
0
 70
               7
280
               1
281
              50
282
              50
283
               0
360
0
 71
               2
 91
        5
 14
-0.5
 24
0.5
 14
0.5
 24
0.5
 14
0.5
 24
0.3000000029308045
 14
-0.5
 24
0.3000000029308045
 14
-0.5
 24
0.5
  0
MTEXT
  5
172
100
AcDbEntity
  8
0
390
0
 62
               7
100
AcDbMText
 10
12660.633
 20
-1223.5572489062502
 30
0.0
 40
185.20862500000001
 41
0.0
 71
               1
 72
               1
  1
{\H0.8795x;\l緞　　　帳}
 73
               1
 44
0.7828267384257842
  0
WIPEOUT
  5
173
100
AcDbEntity
  8
0
370
               5
390
0
  6
Continuous
 62
               7
 92
        0
100
AcDbWipeout
 90
        0
 10
12670.511
 20
-659.99399999999991
 30
0.0
 11
1270.0020186106358
 21
0.0
 31
0.0
 12
0.0
 22
1270.0020186106358
 32
0.0
 13
1.0
 23
1.0
340
0
 70
               7
280
               1
281
              50
282
              50
283
               0
360
0
 71
               2
 91
        5
 14
-0.5
 24
0.5
 14
0.5
 24
0.5
 14
0.5
 24
0.3333333357756702
 14
-0.5
 24
0.3333333357756702
 14
-0.5
 24
0.5
  0
MTEXT
  5
174
100
AcDbEntity
  8
0
390
0
 62
               7
100
AcDbMText
 10
12670.511
 20
-467.47624890624996
 30
0.0
 40
185.20862500000001
 41
0.0
 71
               1
 72
               1
  1
{\H0.8795x;\l定　式　幕　}
 73
               1
 44
0.7828267384257842
  0
WIPEOUT
  5
175
100
AcDbEntity
  8
0
370
               5
390
0
  6
Continuous
 62
               7
 92
        0
100
AcDbWipeout
 90
        0
 10
12646.111000000001
 20
-1165.8340000000001
 30
0.0
 11
846.66801240709174
 21
0.0
 31
0.0
 12
0.0
 22
846.66801240709174
 32
0.0
 13
1.0
 23
1.0
340
0
 70
               7
280
               1
281
              50
282
              50
283
               0
360
0
 71
               2
 91
        5
 14
-0.5
 24
0.5
 14
0.5
 24
0.5
 14
0.5
 24
0.2500000036635055
 14
-0.5
 24
0.2500000036635055
 14
-0.5
 24
0.5
  0
MTEXT
  5
176
100
AcDbEntity
  8
0
390
0
 62
               7
100
AcDbMText
 10
12646.111000000001
 20
-973.31624890624994
 30
0.0
 40
185.20862500000001
 41
0.0
 71
               1
 72
               1
  1
{\H0.8795x;\lカスミ１}
 73
               1
 44
0.7828267384257842
  0
MTEXT
  5
177
100
AcDbEntity
  8
0
390
0
 62
               7
100
AcDbMText
 10
12686.666999999999
 20
-745.67724890625004
 30
0.0
 40
185.20862500000001
 41
0.0
 71
               1
 72
               1
  1
{\H0.8795x;\lB  L  1}
 73
               1
 44
0.7828267384257842
  0
WIPEOUT
  5
178
100
AcDbEntity
  8
0
370
               5
390
0
  6
Continuous
 62
               7
 92
        0
100
AcDbWipeout
 90
        0
 10
12650.021000000001
 20
-378.07499999999999
 30
0.0
 11
1058.3350155088629
 21
0.0
 31
0.0
 12
0.0
 22
1058.3350155088629
 32
0.0
 13
1.0
 23
1.0
340
0
 70
               7
280
               1
281
              50
282
              50
283
               0
360
0
 71
               2
 91
        5
 14
-0.5
 24
0.5
 14
0.5
 24
0.5
 14
0.5
 24
0.3000000029308041
 14
-0.5
 24
0.3000000029308041
 14
-0.5
 24
0.5
  0
MTEXT
  5
179
100
AcDbEntity
  8
0
390
0
 62
               7
100
AcDbMText
 10
12650.021000000001
 20
-185.55724890624998
 30
0.0
 40
185.20862500000001
 41
0.0
 71
               1
 72
               1
  1
{\H0.8795x;\l袖　幕　１}
 73
               1
 44
0.7828267384257842
  0
WIPEOUT
  5
17A
100
AcDbEntity
  8
0
370
               5
390
0
  6
Continuous
 62
               7
 92
        0
100
AcDbWipeout
 90
        0
 10
12601.368
 20
3145.9360000000001
 30
0.0
 11
846.66801240709174
 21
0.0
 31
0.0
 12
0.0
 22
846.66801240709174
 32
0.0
 13
1.0
 23
1.0
340
0
 70
               7
280
               1
281
              50
282
              50
283
               0
360
0
 71
               2
 91
        5
 14
-0.5
 24
0.5
 14
0.5
 24
0.5
 14
0.5
 24
0.2500000036635056
 14
-0.5
 24
0.2500000036635056
 14
-0.5
 24
0.5
  0
MTEXT
  5
17B
100
AcDbEntity
  8
0
390
0
 62
               7
100
AcDbMText
 10
12601.368
 20
3338.4537510937503
 30
0.0
 40
185.20862500000001
 41
0.0
 71
               1
 72
               1
  1
{\H0.8795x;\lバトン３}
 73
               1
 44
0.7828267384257842
  0
WIPEOUT
  5
17C
100
AcDbEntity
  8
0
370
               5
390
0
  6
Continuous
 62
               7
 92
        0
100
AcDbWipeout
 90
        0
 10
-971.81299999999999
 20
8342.8220000000001
 30
0.0
 11
1763.8899654812283
 21
0.0
 31
0.0
 12
0.0
 22
1763.8899654812283
 32
0.0
 13
1.0
 23
1.0
340
0
 70
               7
280
               1
281
              50
282
              50
283
               0
360
0
 71
               2
 91
        5
 14
-0.5
 24
0.5
 14
0.5
 24
0.5
 14
0.5
 24
0.2999999960860628
 14
-0.5
 24
0.2999999960860628
 14
-0.5
 24
0.5
  0
MTEXT
  5
17D
100
AcDbEntity
  8
0
390
0
 62
               7
100
AcDbMText
 10
-971.81299999999999
 20
8663.6846153125007
 30
0.0
 40
308.68075000000005
 41
0.0
 71
               1
 72
               1
  1
{\H0.8795x;\l舞台裏通路}
 73
               1
 44
0.7828267384257844
  0
LINE
  5
17E
100
AcDbEntity
  8
0
370
               5
390
0
  6
Continuous
 62
               7
100
AcDbLine
 10
-9150.0
 20
7350.0
 30
0.0
 11
-11600.0
 21
7350.0
 31
0.0
  0
LINE
  5
17F
100
AcDbEntity
  8
0
370
               5
390
0
  6
Continuous
 62
               7
100
AcDbLine
 10
-7150.0
 20
-1150.0
 30
0.0
 11
-8100.0
 21
-1150.0
 31
0.0
  0
LINE
  5
180
100
AcDbEntity
  8
0
370
               5
390
0
  6
Continuous
 62
               7
100
AcDbLine
 10
-7150.0
 20
-1150.0
 30
0.0
 11
-6400.0
 21
-1150.0
 31
0.0
  0
LINE
  5
181
100
AcDbEntity
  8
0
370
               5
390
0
  6
Continuous
 62
               7
100
AcDbLine
 10
-7150.0
 20
-1900.0
 30
0.0
 11
-8250.0
 21
-1900.0
 31
0.0
  0
LINE
  5
182
100
AcDbEntity
  8
0
370
               5
390
0
  6
Continuous
 62
               7
100
AcDbLine
 10
-6400.0
 20
-1150.0
 30
0.0
 11
-9575.0
 21
-6240.0
 31
0.0
  0
LINE
  5
183
100
AcDbEntity
  8
0
370
               5
390
0
  6
Continuous
 62
               7
100
AcDbLine
 10
-7150.0
 20
-1900.0
 30
0.0
 11
-9810.0
 21
-6105.0
 31
0.0
  0
LINE
  5
184
100
AcDbEntity
  8
0
370
               5
390
0
  6
Continuous
 62
               7
100
AcDbLine
 10
-9810.0
 20
-6105.0
 30
0.0
 11
-9575.0
 21
-6240.0
 31
0.0
  0
LINE
  5
185
100
AcDbEntity
  8
0
370
               5
390
0
  6
Continuous
 62
               7
100
AcDbLine
 10
-8100.0
 20
-1150.0
 30
0.0
 11
-9150.0
 21
-2850.0
 31
0.0
  0
LINE
  5
186
100
AcDbEntity
  8
0
370
               5
390
0
  6
Continuous
 62
               7
100
AcDbLine
 10
-8250.0
 20
-1900.0
 30
0.0
 11
-8930.0
 21
-3000.0
 31
0.0
  0
LINE
  5
187
100
AcDbEntity
  8
0
370
               5
390
0
  6
Continuous
 62
               7
100
AcDbLine
 10
-9810.0
 20
-6105.0
 30
0.0
 11
-9220.0
 21
-5170.0
 31
0.0
  0
LINE
  5
188
100
AcDbEntity
  8
0
370
               5
390
0
  6
Continuous
 62
               7
100
AcDbLine
 10
-9220.0
 20
-5170.0
 30
0.0
 11
-9150.0
 21
-2850.0
 31
0.0
  0
LINE
  5
189
100
AcDbEntity
  8
0
370
               5
390
0
  6
Continuous
 62
               7
100
AcDbLine
 10
-8880.0
 20
-2930.0
 30
0.0
 11
-8950.0
 21
-4750.0
 31
0.0
  0
LINE
  5
18A
100
AcDbEntity
  8
0
370
               5
390
0
  6
Continuous
 62
               7
100
AcDbLine
 10
-11600.0
 20
-6650.0
 30
0.0
 11
-11600.0
 21
-8200.0
 31
0.0
  0
LINE
  5
18B
100
AcDbEntity
  8
0
370
               5
390
0
  6
Continuous
 62
               7
100
AcDbLine
 10
-11600.0
 20
-8200.0
 30
0.0
 11
-11170.0
 21
-8200.0
 31
0.0
  0
LINE
  5
18C
100
AcDbEntity
  8
0
370
               5
390
0
  6
Continuous
 62
               7
100
AcDbLine
 10
-11050.0
 20
-8450.0
 30
0.0
 11
-10160.0
 21
-7120.0
 31
0.0
  0
LINE
  5
18D
100
AcDbEntity
  8
0
370
               5
390
0
  6
Continuous
 62
               7
100
AcDbLine
 10
-10160.0
 20
-7120.0
 30
0.0
 11
-10387.291999999999
 21
-6988.7730000000001
 31
0.0
  0
LINE
  5
18E
100
AcDbEntity
  8
0
370
               5
390
0
  6
Continuous
 62
               7
100
AcDbLine
 10
-11170.0
 20
-8200.0
 30
0.0
 11
-10387.291999999999
 21
-6988.7730000000001
 31
0.0
  0
LINE
  5
18F
100
AcDbEntity
  8
0
370
               5
390
0
  6
Continuous
 62
               7
100
AcDbLine
 10
9910.0
 20
-6105.0
 30
0.0
 11
11305.0
 21
-8300.0
 31
0.0
  0
LINE
  5
190
100
AcDbEntity
  8
0
370
               5
390
0
  6
Continuous
 62
               7
100
AcDbLine
 10
9675.0
 20
-6240.0
 30
0.0
 11
11155.0
 21
-8450.0
 31
0.0
  0
POLYLINE
  5
191
102
{ACAD_REACTORS
330
1A3
102
}
100
AcDbEntity
  8
0
370
               5
390
0
  6
Continuous
 62
               7
100
AcDb2dPolyline
 66
               1
 10
0.0
 20
0.0
 30
0.0
 70
               1
 75
               5
  0
VERTEX
  5
192
100
AcDbEntity
  8
0
370
               5
390
0
  6
Continuous
 62
               7
100
AcDbVertex
100
AcDb2dVertex
 10
-12300.0
 20
-1150.0
 30
0.0
  0
VERTEX
  5
193
100
AcDbEntity
  8
0
370
               5
390
0
  6
Continuous
 62
               7
100
AcDbVertex
100
AcDb2dVertex
 10
-12300.0
 20
-1700.0
 30
0.0
  0
VERTEX
  5
194
100
AcDbEntity
  8
0
370
               5
390
0
  6
Continuous
 62
               7
100
AcDbVertex
100
AcDb2dVertex
 10
-13300.0
 20
-1700.0
 30
0.0
  0
VERTEX
  5
195
100
AcDbEntity
  8
0
370
               5
390
0
  6
Continuous
 62
               7
100
AcDbVertex
100
AcDb2dVertex
 10
-13300.0
 20
-1850.0
 30
0.0
  0
VERTEX
  5
196
100
AcDbEntity
  8
0
370
               5
390
0
  6
Continuous
 62
               7
100
AcDbVertex
100
AcDb2dVertex
 10
-12350.0
 20
-1850.0
 30
0.0
  0
VERTEX
  5
197
100
AcDbEntity
  8
0
370
               5
390
0
  6
Continuous
 62
               7
100
AcDbVertex
100
AcDb2dVertex
 10
-12350.0
 20
-8450.0
 30
0.0
  0
VERTEX
  5
198
100
AcDbEntity
  8
0
370
               5
390
0
  6
Continuous
 62
               7
100
AcDbVertex
100
AcDb2dVertex
 10
-11050.0
 20
-8450.0
 30
0.0
  0
VERTEX
  5
199
100
AcDbEntity
  8
0
370
               5
390
0
  6
Continuous
 62
               7
100
AcDbVertex
100
AcDb2dVertex
 10
-10160.0
 20
-7120.0
 30
0.0
  0
VERTEX
  5
19A
100
AcDbEntity
  8
0
370
               5
390
0
  6
Continuous
 62
               7
100
AcDbVertex
100
AcDb2dVertex
 10
-10387.291999999999
 20
-6988.7730000000001
 30
0.0
  0
VERTEX
  5
19B
100
AcDbEntity
  8
0
370
               5
390
0
  6
Continuous
 62
               7
100
AcDbVertex
100
AcDb2dVertex
 10
-11170.0
 20
-8200.0
 30
0.0
  0
VERTEX
  5
19C
100
AcDbEntity
  8
0
370
               5
390
0
  6
Continuous
 62
               7
100
AcDbVertex
100
AcDb2dVertex
 10
-11600.0
 20
-8200.0
 30
0.0
  0
VERTEX
  5
19D
100
AcDbEntity
  8
0
370
               5
390
0
  6
Continuous
 62
               7
100
AcDbVertex
100
AcDb2dVertex
 10
-11600.0
 20
-6650.0
 30
0.0
  0
VERTEX
  5
19E
100
AcDbEntity
  8
0
370
               5
390
0
  6
Continuous
 62
               7
100
AcDbVertex
100
AcDb2dVertex
 10
-12150.0
 20
-6650.0
 30
0.0
  0
VERTEX
  5
19F
100
AcDbEntity
  8
0
370
               5
390
0
  6
Continuous
 62
               7
100
AcDbVertex
100
AcDb2dVertex
 10
-12150.0
 20
-1850.0
 30
0.0
  0
VERTEX
  5
1A0
100
AcDbEntity
  8
0
370
               5
390
0
  6
Continuous
 62
               7
100
AcDbVertex
100
AcDb2dVertex
 10
-11600.0
 20
-1850.0
 30
0.0
  0
VERTEX
  5
1A1
100
AcDbEntity
  8
0
370
               5
390
0
  6
Continuous
 62
               7
100
AcDbVertex
100
AcDb2dVertex
 10
-11600.0
 20
-1150.0
 30
0.0
  0
SEQEND
  5
1A2
100
AcDbEntity
  8
0
370
               5
390
0
  6
Continuous
 62
               7
  0
HATCH
  5
1A3
100
AcDbEntity
  8
0
370
               0
390
0
  6
Continuous
 62
             255
100
AcDbHatch
 10
0.0
 20
0.0
 30
0.0
210
0.0
220
0.0
230
1.0
  2
SOLID
 70
               1
 71
               1
 91
        1
 92
        1
 93
       16
 72
               1
 10
-12300.0
 20
-1150.0
 11
-12300.0
 21
-1700.0
 72
               1
 10
-12300.0
 20
-1700.0
 11
-13300.0
 21
-1700.0
 72
               1
 10
-13300.0
 20
-1700.0
 11
-13300.0
 21
-1850.0
 72
               1
 10
-13300.0
 20
-1850.0
 11
-12350.0
 21
-1850.0
 72
               1
 10
-12350.0
 20
-1850.0
 11
-12350.0
 21
-8450.0
 72
               1
 10
-12350.0
 20
-8450.0
 11
-11050.0
 21
-8450.0
 72
               1
 10
-11050.0
 20
-8450.0
 11
-10160.0
 21
-7120.0
 72
               1
 10
-10160.0
 20
-7120.0
 11
-10387.291999999999
 21
-6988.7730000000001
 72
               1
 10
-10387.291999999999
 20
-6988.7730000000001
 11
-11170.0
 21
-8200.0
 72
               1
 10
-11170.0
 20
-8200.0
 11
-11600.0
 21
-8200.0
 72
               1
 10
-11600.0
 20
-8200.0
 11
-11600.0
 21
-6650.0
 72
               1
 10
-11600.0
 20
-6650.0
 11
-12150.0
 21
-6650.0
 72
               1
 10
-12150.0
 20
-6650.0
 11
-12150.0
 21
-1850.0
 72
               1
 10
-12150.0
 20
-1850.0
 11
-11600.0
 21
-1850.0
 72
               1
 10
-11600.0
 20
-1850.0
 11
-11600.0
 21
-1150.0
 72
               1
 10
-11600.0
 20
-1150.0
 11
-12300.0
 21
-1150.0
 97
        1
330
191
 75
               0
 76
               1
 98
        1
 10
0.0
 20
0.0
  0
LINE
  5
1A4
100
AcDbEntity
  8
0
370
               5
390
0
  6
Continuous
 62
               7
100
AcDbLine
 10
-5250.0
 20
-2400.0
 30
0.0
 11
-5300.0
 21
-2400.0
 31
0.0
  0
LINE
  5
1A5
100
AcDbEntity
  8
0
370
               5
390
0
  6
Continuous
 62
               7
100
AcDbLine
 10
-5300.0
 20
-2400.0
 30
0.0
 11
-8860.0
 21
-8190.0
 31
0.0
  0
LINE
  5
1A6
100
AcDbEntity
  8
0
370
               5
390
0
  6
Continuous
 62
               7
100
AcDbLine
 10
-8860.0
 20
-8190.0
 30
0.0
 11
-8743.6710000000003
 21
-8257.1620000000003
 31
0.0
  0
LINE
  5
1A7
100
AcDbEntity
  8
0
370
              70
390
0
  6
Continuous
 62
               7
100
AcDbLine
 10
-5200.0
 20
-2500.0
 30
0.0
 11
-8743.6710000000003
 21
-8257.1620000000003
 31
0.0
  0
LINE
  5
1A8
100
AcDbEntity
  8
0
370
              70
390
0
  6
Continuous
 62
               7
100
AcDbLine
 10
-8743.6710000000003
 20
-8257.1620000000003
 30
0.0
 11
-10314.401
 21
-7350.3020000000006
 31
0.0
  0
LINE
  5
1A9
100
AcDbEntity
  8
0
370
               5
390
0
  6
Continuous
 62
               7
100
AcDbLine
 10
3650.0
 20
-2100.0
 30
0.0
 11
4050.0
 21
-2100.0
 31
0.0
  0
LINE
  5
1AA
100
AcDbEntity
  8
0
370
               5
390
0
  6
Continuous
 62
               7
100
AcDbLine
 10
3650.0
 20
-2400.0
 30
0.0
 11
4050.0
 21
-2400.0
 31
0.0
  0
LINE
  5
1AB
100
AcDbEntity
  8
0
370
              70
390
0
  6
Continuous
 62
               7
100
AcDbLine
 10
3650.0
 20
-2500.0
 30
0.0
 11
4050.0
 21
-2500.0
 31
0.0
  0
LINE
  5
1AC
100
AcDbEntity
  8
0
370
               5
390
0
  6
Continuous
 62
               7
100
AcDbLine
 10
4050.0
 20
-2100.0
 30
0.0
 11
5980.0
 21
-1970.0
 31
0.0
  0
LINE
  5
1AD
100
AcDbEntity
  8
0
370
               5
390
0
  6
Continuous
 62
               7
100
AcDbLine
 10
4050.0
 20
-2400.0
 30
0.0
 11
7130.0
 21
-2170.0
 31
0.0
  0
LINE
  5
1AE
100
AcDbEntity
  8
0
370
              70
390
0
  6
Continuous
 62
               7
100
AcDbLine
 10
4050.0
 20
-2500.0
 30
0.0
 11
7190.0
 21
-2250.0
 31
0.0
  0
LINE
  5
1AF
100
AcDbEntity
  8
0
370
               5
390
0
  6
Continuous
 62
               7
100
AcDbLine
 10
5980.0
 20
-1970.0
 30
0.0
 11
5980.0
 21
-2250.0
 31
0.0
  0
LINE
  5
1B0
100
AcDbEntity
  8
0
370
               5
390
0
  6
Continuous
 62
               7
100
AcDbLine
 10
3650.0
 20
-2400.0
 30
0.0
 11
-5250.0
 21
-2400.0
 31
0.0
  0
LINE
  5
1B1
100
AcDbEntity
  8
0
370
              70
390
0
  6
Continuous
 62
               7
100
AcDbLine
 10
-5200.0
 20
-2500.0
 30
0.0
 11
3650.0
 21
-2500.0
 31
0.0
  0
LINE
  5
1B2
100
AcDbEntity
  8
0
370
               5
390
0
  6
Continuous
 62
               7
100
AcDbLine
 10
-5370.0
 20
-2510.0
 30
0.0
 11
-6747.0799999999999
 21
-1714.942
 31
0.0
  0
LINE
  5
1B3
100
AcDbEntity
  8
0
370
               5
390
0
  6
Continuous
 62
               7
100
AcDbLine
 10
-12150.0
 20
-1850.0
 30
0.0
 11
-12100.0
 21
-1850.0
 31
0.0
  0
LINE
  5
1B4
100
AcDbEntity
  8
0
370
               5
390
0
  6
Continuous
 62
               7
100
AcDbLine
 10
-12100.0
 20
-2550.0
 30
0.0
 11
-12050.0
 21
-2550.0
 31
0.0
  0
LINE
  5
1B5
100
AcDbEntity
  8
0
370
               5
390
0
  6
Continuous
 62
               7
100
AcDbLine
 10
-12100.0
 20
-2550.0
 30
0.0
 11
-12100.0
 21
-5150.0
 31
0.0
  0
LINE
  5
1B6
100
AcDbEntity
  8
0
370
               5
390
0
  6
Continuous
 62
               7
100
AcDbLine
 10
-12050.0
 20
-2550.0
 30
0.0
 11
-12050.0
 21
-2600.0
 31
0.0
  0
LINE
  5
1B7
100
AcDbEntity
  8
0
370
               5
390
0
  6
Continuous
 62
               7
100
AcDbLine
 10
-12050.0
 20
-2600.0
 30
0.0
 11
-11300.0
 21
-2600.0
 31
0.0
  0
LINE
  5
1B8
100
AcDbEntity
  8
0
370
               5
390
0
  6
Continuous
 62
               7
100
AcDbLine
 10
-12050.0
 20
-2850.0
 30
0.0
 11
-11300.0
 21
-2850.0
 31
0.0
  0
LINE
  5
1B9
100
AcDbEntity
  8
0
370
               5
390
0
  6
Continuous
 62
               7
100
AcDbLine
 10
-12050.0
 20
-3100.0
 30
0.0
 11
-11300.0
 21
-3100.0
 31
0.0
  0
LINE
  5
1BA
100
AcDbEntity
  8
0
370
               5
390
0
  6
Continuous
 62
               7
100
AcDbLine
 10
-12050.0
 20
-3350.0
 30
0.0
 11
-11300.0
 21
-3350.0
 31
0.0
  0
LINE
  5
1BB
100
AcDbEntity
  8
0
370
               5
390
0
  6
Continuous
 62
               7
100
AcDbLine
 10
-12050.0
 20
-3600.0
 30
0.0
 11
-11300.0
 21
-3600.0
 31
0.0
  0
LINE
  5
1BC
100
AcDbEntity
  8
0
370
               5
390
0
  6
Continuous
 62
               7
100
AcDbLine
 10
-12050.0
 20
-3850.0
 30
0.0
 11
-11300.0
 21
-3850.0
 31
0.0
  0
LINE
  5
1BD
100
AcDbEntity
  8
0
370
               5
390
0
  6
Continuous
 62
               7
100
AcDbLine
 10
-12050.0
 20
-4100.0
 30
0.0
 11
-11300.0
 21
-4100.0
 31
0.0
  0
LINE
  5
1BE
100
AcDbEntity
  8
0
370
               5
390
0
  6
Continuous
 62
               7
100
AcDbLine
 10
-12050.0
 20
-4350.0
 30
0.0
 11
-11300.0
 21
-4350.0
 31
0.0
  0
LINE
  5
1BF
100
AcDbEntity
  8
0
370
               5
390
0
  6
Continuous
 62
               7
100
AcDbLine
 10
-12050.0
 20
-4600.0
 30
0.0
 11
-11300.0
 21
-4600.0
 31
0.0
  0
LINE
  5
1C0
100
AcDbEntity
  8
0
370
               5
390
0
  6
Continuous
 62
               7
100
AcDbLine
 10
-11300.0
 20
-2600.0
 30
0.0
 11
-11300.0
 21
-2550.0
 31
0.0
  0
LINE
  5
1C1
100
AcDbEntity
  8
0
370
               5
390
0
  6
Continuous
 62
               7
100
AcDbLine
 10
-11300.0
 20
-2550.0
 30
0.0
 11
-11250.0
 21
-2550.0
 31
0.0
  0
LINE
  5
1C2
100
AcDbEntity
  8
0
370
               5
390
0
  6
Continuous
 62
               7
100
AcDbLine
 10
-11250.0
 20
-2550.0
 30
0.0
 11
-11250.0
 21
-4650.0
 31
0.0
  0
LINE
  5
1C3
100
AcDbEntity
  8
0
370
               5
390
0
  6
Continuous
 62
               7
100
AcDbLine
 10
-11250.0
 20
-4650.0
 30
0.0
 11
-11250.0
 21
-4685.0
 31
0.0
  0
LINE
  5
1C4
100
AcDbEntity
  8
0
370
               5
390
0
  6
Continuous
 62
               7
100
AcDbLine
 10
-12100.0
 20
-5150.0
 30
0.0
 11
-11250.0
 21
-4685.0
 31
0.0
  0
LINE
  5
1C5
100
AcDbEntity
  8
0
370
               5
390
0
  6
Continuous
 62
               7
100
AcDbLine
 10
-12050.0
 20
-5122.0
 30
0.0
 11
-12050.0
 21
-2600.0
 31
0.0
  0
LINE
  5
1C6
100
AcDbEntity
  8
0
370
               5
390
0
  6
Continuous
 62
               7
100
AcDbLine
 10
-11300.0
 20
-2600.0
 30
0.0
 11
-11300.0
 21
-4712.0
 31
0.0
  0
LINE
  5
1C7
100
AcDbEntity
  8
0
370
               5
390
0
  6
Continuous
 62
               7
100
AcDbLine
 10
-12050.0
 20
-4850.0
 30
0.0
 11
-11555.0
 21
-4850.0
 31
0.0
  0
LINE
  5
1C8
100
AcDbEntity
  8
0
370
               5
390
0
  6
Continuous
 62
               7
100
AcDbLine
 10
-11690.0
 20
-2600.0
 30
0.0
 11
-11690.0
 21
-4930.0
 31
0.0
  0
LINE
  5
1C9
100
AcDbEntity
  8
0
370
               5
390
0
  6
Continuous
 62
               7
100
AcDbLine
 10
-11690.0
 20
-4930.0
 30
0.0
 11
-11760.0
 21
-4850.0
 31
0.0
  0
WIPEOUT
  5
1CA
100
AcDbEntity
  8
0
370
               5
390
0
  6
Continuous
 62
               7
 92
        0
100
AcDbWipeout
 90
        0
 10
-12100.526
 20
-2442.1970000000001
 30
0.0
 11
846.66801240709174
 21
0.0
 31
0.0
 12
0.0
 22
846.66801240709174
 32
0.0
 13
1.0
 23
1.0
340
0
 70
               7
280
               1
281
              50
282
              50
283
               0
360
0
 71
               2
 91
        5
 14
-0.5
 24
0.5
 14
0.5
 24
0.5
 14
0.5
 24
0.2500000036635056
 14
-0.5
 24
0.2500000036635056
 14
-0.5
 24
0.5
  0
MTEXT
  5
1CB
100
AcDbEntity
  8
0
390
0
 62
               7
100
AcDbMText
 10
-12100.526
 20
-2249.67924890625
 30
0.0
 40
185.20862500000001
 41
0.0
 71
               1
 72
               1
  1
{\H0.8795x;\l調光室へ}
 73
               1
 44
0.7828267384257842
  0
LINE
  5
1CC
100
AcDbEntity
  8
0
370
               5
390
0
  6
Continuous
 62
               7
100
AcDbLine
 10
11710.0
 20
-2500.0
 30
0.0
 11
11650.0
 21
-2500.0
 31
0.0
  0
LINE
  5
1CD
100
AcDbEntity
  8
0
370
               5
390
0
  6
Continuous
 62
               7
100
AcDbLine
 10
11650.0
 20
-2500.0
 30
0.0
 11
11650.0
 21
-4400.0
 31
0.0
  0
LINE
  5
1CE
100
AcDbEntity
  8
0
370
               5
390
0
  6
Continuous
 62
               7
100
AcDbLine
 10
11650.0
 20
-2550.0
 30
0.0
 11
10950.0
 21
-2550.0
 31
0.0
  0
LINE
  5
1CF
100
AcDbEntity
  8
0
370
               5
390
0
  6
Continuous
 62
               7
100
AcDbLine
 10
11650.0
 20
-2800.0
 30
0.0
 11
10950.0
 21
-2800.0
 31
0.0
  0
LINE
  5
1D0
100
AcDbEntity
  8
0
370
               5
390
0
  6
Continuous
 62
               7
100
AcDbLine
 10
11650.0
 20
-3050.0
 30
0.0
 11
10950.0
 21
-3050.0
 31
0.0
  0
LINE
  5
1D1
100
AcDbEntity
  8
0
370
               5
390
0
  6
Continuous
 62
               7
100
AcDbLine
 10
11650.0
 20
-3300.0
 30
0.0
 11
10950.0
 21
-3300.0
 31
0.0
  0
LINE
  5
1D2
100
AcDbEntity
  8
0
370
               5
390
0
  6
Continuous
 62
               7
100
AcDbLine
 10
11650.0
 20
-3550.0
 30
0.0
 11
10950.0
 21
-3550.0
 31
0.0
  0
LINE
  5
1D3
100
AcDbEntity
  8
0
370
               5
390
0
  6
Continuous
 62
               7
100
AcDbLine
 10
11650.0
 20
-3800.0
 30
0.0
 11
10950.0
 21
-3800.0
 31
0.0
  0
LINE
  5
1D4
100
AcDbEntity
  8
0
370
               5
390
0
  6
Continuous
 62
               7
100
AcDbLine
 10
11650.0
 20
-4050.0
 30
0.0
 11
10950.0
 21
-4050.0
 31
0.0
  0
LINE
  5
1D5
100
AcDbEntity
  8
0
370
               5
390
0
  6
Continuous
 62
               7
100
AcDbLine
 10
11650.0
 20
-4300.0
 30
0.0
 11
10950.0
 21
-4300.0
 31
0.0
  0
LINE
  5
1D6
100
AcDbEntity
  8
0
370
               5
390
0
  6
Continuous
 62
               7
100
AcDbLine
 10
10950.0
 20
-2550.0
 30
0.0
 11
10950.0
 21
-2500.0
 31
0.0
  0
LINE
  5
1D7
100
AcDbEntity
  8
0
370
               5
390
0
  6
Continuous
 62
               7
100
AcDbLine
 10
10950.0
 20
-2500.0
 30
0.0
 11
10900.0
 21
-2500.0
 31
0.0
  0
LINE
  5
1D8
100
AcDbEntity
  8
0
370
               5
390
0
  6
Continuous
 62
               7
100
AcDbLine
 10
10900.0
 20
-2500.0
 30
0.0
 11
10900.0
 21
-4800.0
 31
0.0
  0
LINE
  5
1D9
100
AcDbEntity
  8
0
370
               5
390
0
  6
Continuous
 62
               7
100
AcDbLine
 10
11650.0
 20
-4400.0
 30
0.0
 11
10900.0
 21
-4800.0
 31
0.0
  0
LINE
  5
1DA
100
AcDbEntity
  8
0
370
               5
390
0
  6
Continuous
 62
               7
100
AcDbLine
 10
10950.0
 20
-2550.0
 30
0.0
 11
10950.0
 21
-4780.0
 31
0.0
  0
LINE
  5
1DB
100
AcDbEntity
  8
0
370
               5
390
0
  6
Continuous
 62
               7
100
AcDbLine
 10
11300.0
 20
-2550.0
 30
0.0
 11
11300.0
 21
-4580.0
 31
0.0
  0
LINE
  5
1DC
100
AcDbEntity
  8
0
370
               5
390
0
  6
Continuous
 62
               7
100
AcDbLine
 10
11300.0
 20
-4580.0
 30
0.0
 11
11190.0
 21
-4370.0
 31
0.0
  0
WIPEOUT
  5
1DD
100
AcDbEntity
  8
0
370
               5
390
0
  6
Continuous
 62
               7
 92
        0
100
AcDbWipeout
 90
        0
 10
10195.648000000001
 20
-2422.3040000000001
 30
0.0
 11
1270.0020186106358
 21
0.0
 31
0.0
 12
0.0
 22
1270.0020186106358
 32
0.0
 13
1.0
 23
1.0
340
0
 70
               7
280
               1
281
              50
282
              50
283
               0
360
0
 71
               2
 91
        5
 14
-0.5
 24
0.5
 14
0.5
 24
0.5
 14
0.5
 24
0.3333333357756702
 14
-0.5
 24
0.3333333357756702
 14
-0.5
 24
0.5
  0
MTEXT
  5
1DE
100
AcDbEntity
  8
0
390
0
 62
               7
100
AcDbMText
 10
10195.648000000001
 20
-2229.78624890625
 30
0.0
 40
185.20862500000001
 41
0.0
 71
               1
 72
               1
  1
{\H0.8795x;\l音響調整室へ}
 73
               1
 44
0.7828267384257842
  0
LINE
  5
1DF
100
AcDbEntity
  8
0
370
               5
390
0
  6
Continuous
 62
               7
100
AcDbLine
 10
-9470.0
 20
-6080.0
 30
0.0
 11
-8073.5900000000001
 21
-6886.2179999999998
 31
0.0
  0
LINE
  5
1E0
100
AcDbEntity
  8
0
370
               5
390
0
  6
Continuous
 62
               7
100
AcDbLine
 10
-8510.0
 20
-4580.0
 30
0.0
 11
-7134.9300000000003
 21
-5373.8969999999999
 31
0.0
  0
LINE
  5
1E1
100
AcDbEntity
  8
0
370
               5
390
0
  6
Continuous
 62
               7
100
AcDbLine
 10
-7610.0
 20
-3160.0
 30
0.0
 11
-6243.5900000000001
 21
-3948.8969999999999
 31
0.0
  0
WIPEOUT
  5
1E2
100
AcDbEntity
  8
0
370
               5
390
0
  6
Continuous
 62
               7
 92
        0
100
AcDbWipeout
 90
        0
 10
-7760.4170000000004
 20
-4401.1109999999999
 30
0.0
 11
635.0
 21
0.0
 31
0.0
 12
0.0
 22
635.0
 32
0.0
 13
1.0
 23
1.0
340
0
 70
               7
280
               1
281
              50
282
              50
283
               0
360
0
 71
               2
 91
        5
 14
-0.5
 24
0.5
 14
0.5
 24
0.5
 14
0.5
 24
0.0
 14
-0.5
 24
0.0
 14
-0.5
 24
0.5
  0
MTEXT
  5
1E3
100
AcDbEntity
  8
0
390
0
 62
               7
100
AcDbMText
 10
-7760.4170000000004
 20
-4112.3348281250001
 30
0.0
 40
277.8125
 41
0.0
 71
               1
 72
               1
  1
{\H0.8795x;\l花道}
 73
               1
 44
0.7828267384257843
  0
WIPEOUT
  5
1E4
100
AcDbEntity
  8
0
370
               5
390
0
  6
Continuous
 62
               7
 92
        0
100
AcDbWipeout
 90
        0
 10
3219.0129999999999
 20
10697.282999999999
 30
0.0
 11
11955.316772460948
 21
0.0
 31
0.0
 12
0.0
 22
11955.316772460948
 32
0.0
 13
1.0
 23
1.0
340
0
 70
               7
280
               1
281
              50
282
              50
283
               0
360
0
 71
               2
 91
        5
 14
-0.5
 24
0.5
 14
0.5
 24
0.5
 14
0.5
 24
0.4731127157801079
 14
-0.5
 24
0.4731127157801079
 14
-0.5
 24
0.5
  0
MTEXT
  5
1E5
100
AcDbEntity
  8
0
390
0
 62
               7
100
AcDbMText
 10
3219.0129999999999
 20
10989.648182187499
 30
0.0
 40
247.36274218750003
 41
0.0
 71
               1
 72
               1
  1
〒780-{\H0.8462x;\l0870}　高知県高知市本町4丁目3-30　TEL　088-824-5321　FAX　088-875-2003
  7
ＭＳ ゴシック
 73
               1
 44
0.7828267384257843
  0
POLYLINE
  5
1E6
102
{ACAD_REACTORS
330
1FD
102
}
100
AcDbEntity
  8
0
370
               5
390
0
  6
Continuous
 62
               7
100
AcDb2dPolyline
 66
               1
 10
0.0
 20
0.0
 30
0.0
 70
               1
 75
               5
  0
VERTEX
  5
1E7
100
AcDbEntity
  8
0
370
               5
390
0
  6
Continuous
 62
               7
100
AcDbVertex
100
AcDb2dVertex
 10
8200.0
 20
-1150.0
 30
0.0
  0
VERTEX
  5
1E8
100
AcDbEntity
  8
0
370
               5
390
0
  6
Continuous
 62
               7
100
AcDbVertex
100
AcDb2dVertex
 10
9250.0
 20
-2850.0
 30
0.0
  0
VERTEX
  5
1E9
100
AcDbEntity
  8
0
370
               5
390
0
  6
Continuous
 62
               7
100
AcDbVertex
100
AcDb2dVertex
 10
9320.0
 20
-5170.0
 30
0.0
  0
VERTEX
  5
1EA
100
AcDbEntity
  8
0
370
               5
390
0
  6
Continuous
 62
               7
100
AcDbVertex
100
AcDb2dVertex
 10
9050.0
 20
-4750.0
 30
0.0
  0
VERTEX
  5
1EB
100
AcDbEntity
  8
0
370
               5
390
0
  6
Continuous
 62
               7
100
AcDbVertex
100
AcDb2dVertex
 10
8980.0
 20
-2930.0
 30
0.0
  0
VERTEX
  5
1EC
100
AcDbEntity
  8
0
370
               5
390
0
  6
Continuous
 62
               7
100
AcDbVertex
100
AcDb2dVertex
 10
8350.0
 20
-1900.0
 30
0.0
  0
VERTEX
  5
1ED
100
AcDbEntity
  8
0
370
               5
390
0
  6
Continuous
 62
               7
100
AcDbVertex
100
AcDb2dVertex
 10
7250.0
 20
-1900.0
 30
0.0
  0
VERTEX
  5
1EE
100
AcDbEntity
  8
0
370
               5
390
0
  6
Continuous
 62
               7
100
AcDbVertex
100
AcDb2dVertex
 10
11305.0
 20
-8300.0
 30
0.0
  0
VERTEX
  5
1EF
100
AcDbEntity
  8
0
370
               5
390
0
  6
Continuous
 62
               7
100
AcDbVertex
100
AcDb2dVertex
 10
11705.0
 20
-8300.0
 30
0.0
  0
VERTEX
  5
1F0
100
AcDbEntity
  8
0
370
               5
390
0
  6
Continuous
 62
               7
100
AcDbVertex
100
AcDb2dVertex
 10
11705.0
 20
-1000.0
 30
0.0
  0
VERTEX
  5
1F1
100
AcDbEntity
  8
0
370
               5
390
0
  6
Continuous
 62
               7
100
AcDbVertex
100
AcDb2dVertex
 10
11855.0
 20
-1000.0
 30
0.0
  0
VERTEX
  5
1F2
100
AcDbEntity
  8
0
370
               5
390
0
  6
Continuous
 62
               7
100
AcDbVertex
100
AcDb2dVertex
 10
11855.0
 20
-1100.0
 30
0.0
  0
VERTEX
  5
1F3
100
AcDbEntity
  8
0
370
               5
390
0
  6
Continuous
 62
               7
100
AcDbVertex
100
AcDb2dVertex
 10
12405.0
 20
-1100.0
 30
0.0
  0
VERTEX
  5
1F4
100
AcDbEntity
  8
0
370
               5
390
0
  6
Continuous
 62
               7
100
AcDbVertex
100
AcDb2dVertex
 10
12405.0
 20
-1800.0
 30
0.0
  0
VERTEX
  5
1F5
100
AcDbEntity
  8
0
370
               5
390
0
  6
Continuous
 62
               7
100
AcDbVertex
100
AcDb2dVertex
 10
11855.0
 20
-1800.0
 30
0.0
  0
VERTEX
  5
1F6
100
AcDbEntity
  8
0
370
               5
390
0
  6
Continuous
 62
               7
100
AcDbVertex
100
AcDb2dVertex
 10
11855.0
 20
-7750.0
 30
0.0
  0
VERTEX
  5
1F7
100
AcDbEntity
  8
0
370
               5
390
0
  6
Continuous
 62
               7
100
AcDbVertex
100
AcDb2dVertex
 10
12405.0
 20
-7750.0
 30
0.0
  0
VERTEX
  5
1F8
100
AcDbEntity
  8
0
370
               5
390
0
  6
Continuous
 62
               7
100
AcDbVertex
100
AcDb2dVertex
 10
12405.0
 20
-8450.0
 30
0.0
  0
VERTEX
  5
1F9
100
AcDbEntity
  8
0
370
               5
390
0
  6
Continuous
 62
               7
100
AcDbVertex
100
AcDb2dVertex
 10
11155.0
 20
-8450.0
 30
0.0
  0
VERTEX
  5
1FA
100
AcDbEntity
  8
0
370
               5
390
0
  6
Continuous
 62
               7
100
AcDbVertex
100
AcDb2dVertex
 10
9500.0
 20
-5970.0
 30
0.0
  0
VERTEX
  5
1FB
100
AcDbEntity
  8
0
370
               5
390
0
  6
Continuous
 62
               7
100
AcDbVertex
100
AcDb2dVertex
 10
6500.0
 20
-1150.0
 30
0.0
  0
SEQEND
  5
1FC
100
AcDbEntity
  8
0
370
               5
390
0
  6
Continuous
 62
               7
  0
HATCH
  5
1FD
100
AcDbEntity
  8
0
370
               0
390
0
  6
Continuous
 62
             255
100
AcDbHatch
 10
0.0
 20
0.0
 30
0.0
210
0.0
220
0.0
230
1.0
  2
SOLID
 70
               1
 71
               1
 91
        1
 92
        1
 93
       21
 72
               1
 10
8200.0
 20
-1150.0
 11
9250.0
 21
-2850.0
 72
               1
 10
9250.0
 20
-2850.0
 11
9320.0
 21
-5170.0
 72
               1
 10
9320.0
 20
-5170.0
 11
9050.0
 21
-4750.0
 72
               1
 10
9050.0
 20
-4750.0
 11
8980.0
 21
-2930.0
 72
               1
 10
8980.0
 20
-2930.0
 11
8350.0
 21
-1900.0
 72
               1
 10
8350.0
 20
-1900.0
 11
7250.0
 21
-1900.0
 72
               1
 10
7250.0
 20
-1900.0
 11
11305.0
 21
-8300.0
 72
               1
 10
11305.0
 20
-8300.0
 11
11705.0
 21
-8300.0
 72
               1
 10
11705.0
 20
-8300.0
 11
11705.0
 21
-1000.0
 72
               1
 10
11705.0
 20
-1000.0
 11
11855.0
 21
-1000.0
 72
               1
 10
11855.0
 20
-1000.0
 11
11855.0
 21
-1100.0
 72
               1
 10
11855.0
 20
-1100.0
 11
12405.0
 21
-1100.0
 72
               1
 10
12405.0
 20
-1100.0
 11
12405.0
 21
-1800.0
 72
               1
 10
12405.0
 20
-1800.0
 11
11855.0
 21
-1800.0
 72
               1
 10
11855.0
 20
-1800.0
 11
11855.0
 21
-7750.0
 72
               1
 10
11855.0
 20
-7750.0
 11
12405.0
 21
-7750.0
 72
               1
 10
12405.0
 20
-7750.0
 11
12405.0
 21
-8450.0
 72
               1
 10
12405.0
 20
-8450.0
 11
11155.0
 21
-8450.0
 72
               1
 10
11155.0
 20
-8450.0
 11
9500.0
 21
-5970.0
 72
               1
 10
9500.0
 20
-5970.0
 11
6500.0
 21
-1150.0
 72
               1
 10
6500.0
 20
-1150.0
 11
8200.0
 21
-1150.0
 97
        1
330
1E6
 75
               0
 76
               1
 98
        1
 10
0.0
 20
0.0
  0
POLYLINE
  5
1FE
102
{ACAD_REACTORS
330
20A
102
}
100
AcDbEntity
  8
0
370
               5
390
0
  6
Continuous
 62
               7
100
AcDb2dPolyline
 66
               1
 10
0.0
 20
0.0
 30
0.0
 70
               1
 75
               5
  0
VERTEX
  5
1FF
100
AcDbEntity
  8
0
370
               5
390
0
  6
Continuous
 62
               7
100
AcDbVertex
100
AcDb2dVertex
 10
-6400.0
 20
-1150.0
 30
0.0
  0
VERTEX
  5
200
100
AcDbEntity
  8
0
370
               5
390
0
  6
Continuous
 62
               7
100
AcDbVertex
100
AcDb2dVertex
 10
-8100.0
 20
-1150.0
 30
0.0
  0
VERTEX
  5
201
100
AcDbEntity
  8
0
370
               5
390
0
  6
Continuous
 62
               7
100
AcDbVertex
100
AcDb2dVertex
 10
-9150.0
 20
-2850.0
 30
0.0
  0
VERTEX
  5
202
100
AcDbEntity
  8
0
370
               5
390
0
  6
Continuous
 62
               7
100
AcDbVertex
100
AcDb2dVertex
 10
-9220.0
 20
-5170.0
 30
0.0
  0
VERTEX
  5
203
100
AcDbEntity
  8
0
370
               5
390
0
  6
Continuous
 62
               7
100
AcDbVertex
100
AcDb2dVertex
 10
-8950.0
 20
-4750.0
 30
0.0
  0
VERTEX
  5
204
100
AcDbEntity
  8
0
370
               5
390
0
  6
Continuous
 62
               7
100
AcDbVertex
100
AcDb2dVertex
 10
-8880.0
 20
-2930.0
 30
0.0
  0
VERTEX
  5
205
100
AcDbEntity
  8
0
370
               5
390
0
  6
Continuous
 62
               7
100
AcDbVertex
100
AcDb2dVertex
 10
-8250.0
 20
-1900.0
 30
0.0
  0
VERTEX
  5
206
100
AcDbEntity
  8
0
370
               5
390
0
  6
Continuous
 62
               7
100
AcDbVertex
100
AcDb2dVertex
 10
-7150.0
 20
-1900.0
 30
0.0
  0
VERTEX
  5
207
100
AcDbEntity
  8
0
370
               5
390
0
  6
Continuous
 62
               7
100
AcDbVertex
100
AcDb2dVertex
 10
-9810.0
 20
-6105.0
 30
0.0
  0
VERTEX
  5
208
100
AcDbEntity
  8
0
370
               5
390
0
  6
Continuous
 62
               7
100
AcDbVertex
100
AcDb2dVertex
 10
-9575.0
 20
-6240.0
 30
0.0
  0
SEQEND
  5
209
100
AcDbEntity
  8
0
370
               5
390
0
  6
Continuous
 62
               7
  0
HATCH
  5
20A
100
AcDbEntity
  8
0
370
               0
390
0
  6
Continuous
 62
             255
100
AcDbHatch
 10
0.0
 20
0.0
 30
0.0
210
0.0
220
0.0
230
1.0
  2
SOLID
 70
               1
 71
               1
 91
        1
 92
        1
 93
       10
 72
               1
 10
-6400.0
 20
-1150.0
 11
-8100.0
 21
-1150.0
 72
               1
 10
-8100.0
 20
-1150.0
 11
-9150.0
 21
-2850.0
 72
               1
 10
-9150.0
 20
-2850.0
 11
-9220.0
 21
-5170.0
 72
               1
 10
-9220.0
 20
-5170.0
 11
-8950.0
 21
-4750.0
 72
               1
 10
-8950.0
 20
-4750.0
 11
-8880.0
 21
-2930.0
 72
               1
 10
-8880.0
 20
-2930.0
 11
-8250.0
 21
-1900.0
 72
               1
 10
-8250.0
 20
-1900.0
 11
-7150.0
 21
-1900.0
 72
               1
 10
-7150.0
 20
-1900.0
 11
-9810.0
 21
-6105.0
 72
               1
 10
-9810.0
 20
-6105.0
 11
-9575.0
 21
-6240.0
 72
               1
 10
-9575.0
 20
-6240.0
 11
-6400.0
 21
-1150.0
 97
        1
330
1FE
 75
               0
 76
               1
 98
        1
 10
0.0
 20
0.0
  0
POLYLINE
  5
20B
102
{ACAD_REACTORS
330
225
102
}
100
AcDbEntity
  8
0
370
               5
390
0
  6
Continuous
 62
               7
100
AcDb2dPolyline
 66
               1
 10
0.0
 20
0.0
 30
0.0
 70
               1
 75
               5
  0
VERTEX
  5
20C
100
AcDbEntity
  8
0
370
               5
390
0
  6
Continuous
 62
               7
100
AcDbVertex
100
AcDb2dVertex
 10
-13800.0
 20
7850.0
 30
0.0
  0
VERTEX
  5
20D
100
AcDbEntity
  8
0
370
               5
390
0
  6
Continuous
 62
               7
100
AcDbVertex
100
AcDb2dVertex
 10
-13800.0
 20
7700.0
 30
0.0
  0
VERTEX
  5
20E
100
AcDbEntity
  8
0
370
               5
390
0
  6
Continuous
 62
               7
100
AcDbVertex
100
AcDb2dVertex
 10
-12300.0
 20
7700.0
 30
0.0
  0
VERTEX
  5
20F
100
AcDbEntity
  8
0
370
               5
390
0
  6
Continuous
 62
               7
100
AcDbVertex
100
AcDb2dVertex
 10
-12300.0
 20
7150.0
 30
0.0
  0
VERTEX
  5
210
100
AcDbEntity
  8
0
370
               5
390
0
  6
Continuous
 62
               7
100
AcDbVertex
100
AcDb2dVertex
 10
-11600.0
 20
7150.0
 30
0.0
  0
VERTEX
  5
211
100
AcDbEntity
  8
0
370
               5
390
0
  6
Continuous
 62
               7
100
AcDbVertex
100
AcDb2dVertex
 10
-11600.0
 20
7700.0
 30
0.0
  0
VERTEX
  5
212
100
AcDbEntity
  8
0
370
               5
390
0
  6
Continuous
 62
               7
100
AcDbVertex
100
AcDb2dVertex
 10
-9150.0
 20
7700.0
 30
0.0
  0
VERTEX
  5
213
100
AcDbEntity
  8
0
370
               5
390
0
  6
Continuous
 62
               7
100
AcDbVertex
100
AcDb2dVertex
 10
-9150.0
 20
7350.0
 30
0.0
  0
VERTEX
  5
214
100
AcDbEntity
  8
0
370
               5
390
0
  6
Continuous
 62
               7
100
AcDbVertex
100
AcDb2dVertex
 10
-9000.0
 20
7350.0
 30
0.0
  0
VERTEX
  5
215
100
AcDbEntity
  8
0
370
               5
390
0
  6
Continuous
 62
               7
100
AcDbVertex
100
AcDb2dVertex
 10
-9000.0
 20
9000.0
 30
0.0
  0
VERTEX
  5
216
100
AcDbEntity
  8
0
370
               5
390
0
  6
Continuous
 62
               7
100
AcDbVertex
100
AcDb2dVertex
 10
9100.0
 20
9000.0
 30
0.0
  0
VERTEX
  5
217
100
AcDbEntity
  8
0
370
               5
390
0
  6
Continuous
 62
               7
100
AcDbVertex
100
AcDb2dVertex
 10
9100.0
 20
7350.0
 30
0.0
  0
VERTEX
  5
218
100
AcDbEntity
  8
0
370
               5
390
0
  6
Continuous
 62
               7
100
AcDbVertex
100
AcDb2dVertex
 10
9250.0
 20
7350.0
 30
0.0
  0
VERTEX
  5
219
100
AcDbEntity
  8
0
370
               5
390
0
  6
Continuous
 62
               7
100
AcDbVertex
100
AcDb2dVertex
 10
9250.0
 20
7650.0
 30
0.0
  0
VERTEX
  5
21A
100
AcDbEntity
  8
0
370
               5
390
0
  6
Continuous
 62
               7
100
AcDbVertex
100
AcDb2dVertex
 10
11700.0
 20
7650.0
 30
0.0
  0
VERTEX
  5
21B
100
AcDbEntity
  8
0
370
               5
390
0
  6
Continuous
 62
               7
100
AcDbVertex
100
AcDb2dVertex
 10
11705.0
 20
6950.0
 30
0.0
  0
VERTEX
  5
21C
100
AcDbEntity
  8
0
370
               5
390
0
  6
Continuous
 62
               7
100
AcDbVertex
100
AcDb2dVertex
 10
11855.0
 20
6950.0
 30
0.0
  0
VERTEX
  5
21D
100
AcDbEntity
  8
0
370
               5
390
0
  6
Continuous
 62
               7
100
AcDbVertex
100
AcDb2dVertex
 10
11855.0
 20
7100.0
 30
0.0
  0
VERTEX
  5
21E
100
AcDbEntity
  8
0
370
               5
390
0
  6
Continuous
 62
               7
100
AcDbVertex
100
AcDb2dVertex
 10
12305.0
 20
7100.0
 30
0.0
  0
VERTEX
  5
21F
100
AcDbEntity
  8
0
370
               5
390
0
  6
Continuous
 62
               7
100
AcDbVertex
100
AcDb2dVertex
 10
12305.0
 20
7800.0
 30
0.0
  0
VERTEX
  5
220
100
AcDbEntity
  8
0
370
               5
390
0
  6
Continuous
 62
               7
100
AcDbVertex
100
AcDb2dVertex
 10
9250.0
 20
7800.0
 30
0.0
  0
VERTEX
  5
221
100
AcDbEntity
  8
0
370
               5
390
0
  6
Continuous
 62
               7
100
AcDbVertex
100
AcDb2dVertex
 10
9250.0
 20
9150.0
 30
0.0
  0
VERTEX
  5
222
100
AcDbEntity
  8
0
370
               5
390
0
  6
Continuous
 62
               7
100
AcDbVertex
100
AcDb2dVertex
 10
-9150.0
 20
9150.0
 30
0.0
  0
VERTEX
  5
223
100
AcDbEntity
  8
0
370
               5
390
0
  6
Continuous
 62
               7
100
AcDbVertex
100
AcDb2dVertex
 10
-9150.0
 20
7850.0
 30
0.0
  0
SEQEND
  5
224
100
AcDbEntity
  8
0
370
               5
390
0
  6
Continuous
 62
               7
  0
HATCH
  5
225
100
AcDbEntity
  8
0
370
               0
390
0
  6
Continuous
 62
             255
100
AcDbHatch
 10
0.0
 20
0.0
 30
0.0
210
0.0
220
0.0
230
1.0
  2
SOLID
 70
               1
 71
               1
 91
        1
 92
        1
 93
       24
 72
               1
 10
-13800.0
 20
7850.0
 11
-13800.0
 21
7700.0
 72
               1
 10
-13800.0
 20
7700.0
 11
-12300.0
 21
7700.0
 72
               1
 10
-12300.0
 20
7700.0
 11
-12300.0
 21
7150.0
 72
               1
 10
-12300.0
 20
7150.0
 11
-11600.0
 21
7150.0
 72
               1
 10
-11600.0
 20
7150.0
 11
-11600.0
 21
7700.0
 72
               1
 10
-11600.0
 20
7700.0
 11
-9150.0
 21
7700.0
 72
               1
 10
-9150.0
 20
7700.0
 11
-9150.0
 21
7350.0
 72
               1
 10
-9150.0
 20
7350.0
 11
-9000.0
 21
7350.0
 72
               1
 10
-9000.0
 20
7350.0
 11
-9000.0
 21
9000.0
 72
               1
 10
-9000.0
 20
9000.0
 11
9100.0
 21
9000.0
 72
               1
 10
9100.0
 20
9000.0
 11
9100.0
 21
7350.0
 72
               1
 10
9100.0
 20
7350.0
 11
9250.0
 21
7350.0
 72
               1
 10
9250.0
 20
7350.0
 11
9250.0
 21
7650.0
 72
               1
 10
9250.0
 20
7650.0
 11
11700.0
 21
7650.0
 72
               1
 10
11700.0
 20
7650.0
 11
11705.0
 21
6950.0
 72
               1
 10
11705.0
 20
6950.0
 11
11855.0
 21
6950.0
 72
               1
 10
11855.0
 20
6950.0
 11
11855.0
 21
7100.0
 72
               1
 10
11855.0
 20
7100.0
 11
12305.0
 21
7100.0
 72
               1
 10
12305.0
 20
7100.0
 11
12305.0
 21
7800.0
 72
               1
 10
12305.0
 20
7800.0
 11
9250.0
 21
7800.0
 72
               1
 10
9250.0
 20
7800.0
 11
9250.0
 21
9150.0
 72
               1
 10
9250.0
 20
9150.0
 11
-9150.0
 21
9150.0
 72
               1
 10
-9150.0
 20
9150.0
 11
-9150.0
 21
7850.0
 72
               1
 10
-9150.0
 20
7850.0
 11
-13800.0
 21
7850.0
 97
        1
330
20B
 75
               0
 76
               1
 98
        1
 10
0.0
 20
0.0
  0
POLYLINE
  5
226
102
{ACAD_REACTORS
330
234
102
}
100
AcDbEntity
  8
0
370
               5
390
0
  6
Continuous
 62
               7
100
AcDb2dPolyline
 66
               1
 10
0.0
 20
0.0
 30
0.0
 70
               1
 75
               5
  0
VERTEX
  5
227
100
AcDbEntity
  8
0
370
               5
390
0
  6
Continuous
 62
               7
100
AcDbVertex
100
AcDb2dVertex
 10
-7801.0
 20
7851.0
 30
0.0
  0
VERTEX
  5
228
100
AcDbEntity
  8
0
370
               5
390
0
  6
Continuous
 62
               7
100
AcDbVertex
100
AcDb2dVertex
 10
-7800.0
 20
7150.0
 30
0.0
  0
VERTEX
  5
229
100
AcDbEntity
  8
0
370
               5
390
0
  6
Continuous
 62
               7
100
AcDbVertex
100
AcDb2dVertex
 10
-7100.0
 20
7150.0
 30
0.0
  0
VERTEX
  5
22A
100
AcDbEntity
  8
0
370
               5
390
0
  6
Continuous
 62
               7
100
AcDbVertex
100
AcDb2dVertex
 10
-7100.0
 20
7700.0
 30
0.0
  0
VERTEX
  5
22B
100
AcDbEntity
  8
0
370
               5
390
0
  6
Continuous
 62
               7
100
AcDbVertex
100
AcDb2dVertex
 10
-301.0
 20
7692.9000000000005
 30
0.0
  0
VERTEX
  5
22C
100
AcDbEntity
  8
0
370
               5
390
0
  6
Continuous
 62
               7
100
AcDbVertex
100
AcDb2dVertex
 10
-301.0
 20
7151.0
 30
0.0
  0
VERTEX
  5
22D
100
AcDbEntity
  8
0
370
               5
390
0
  6
Continuous
 62
               7
100
AcDbVertex
100
AcDb2dVertex
 10
399.0
 20
7151.0
 30
0.0
  0
VERTEX
  5
22E
100
AcDbEntity
  8
0
370
               5
390
0
  6
Continuous
 62
               7
100
AcDbVertex
100
AcDb2dVertex
 10
399.0
 20
7701.0
 30
0.0
  0
VERTEX
  5
22F
100
AcDbEntity
  8
0
370
               5
390
0
  6
Continuous
 62
               7
100
AcDbVertex
100
AcDb2dVertex
 10
7199.0
 20
7700.0
 30
0.0
  0
VERTEX
  5
230
100
AcDbEntity
  8
0
370
               5
390
0
  6
Continuous
 62
               7
100
AcDbVertex
100
AcDb2dVertex
 10
7199.0
 20
7151.0
 30
0.0
  0
VERTEX
  5
231
100
AcDbEntity
  8
0
370
               5
390
0
  6
Continuous
 62
               7
100
AcDbVertex
100
AcDb2dVertex
 10
7899.0
 20
7151.0
 30
0.0
  0
VERTEX
  5
232
100
AcDbEntity
  8
0
370
               5
390
0
  6
Continuous
 62
               7
100
AcDbVertex
100
AcDb2dVertex
 10
7899.0
 20
7851.0
 30
0.0
  0
SEQEND
  5
233
100
AcDbEntity
  8
0
370
               5
390
0
  6
Continuous
 62
               7
  0
HATCH
  5
234
100
AcDbEntity
  8
0
370
               0
390
0
  6
Continuous
 62
             255
100
AcDbHatch
 10
0.0
 20
0.0
 30
0.0
210
0.0
220
0.0
230
1.0
  2
SOLID
 70
               1
 71
               1
 91
        1
 92
        1
 93
       12
 72
               1
 10
-7801.0
 20
7851.0
 11
-7800.0
 21
7150.0
 72
               1
 10
-7800.0
 20
7150.0
 11
-7100.0
 21
7150.0
 72
               1
 10
-7100.0
 20
7150.0
 11
-7100.0
 21
7700.0
 72
               1
 10
-7100.0
 20
7700.0
 11
-301.0
 21
7692.9000000000005
 72
               1
 10
-301.0
 20
7692.9000000000005
 11
-301.0
 21
7151.0
 72
               1
 10
-301.0
 20
7151.0
 11
399.0
 21
7151.0
 72
               1
 10
399.0
 20
7151.0
 11
399.0
 21
7701.0
 72
               1
 10
399.0
 20
7701.0
 11
7199.0
 21
7700.0
 72
               1
 10
7199.0
 20
7700.0
 11
7199.0
 21
7151.0
 72
               1
 10
7199.0
 20
7151.0
 11
7899.0
 21
7151.0
 72
               1
 10
7899.0
 20
7151.0
 11
7899.0
 21
7851.0
 72
               1
 10
7899.0
 20
7851.0
 11
-7801.0
 21
7851.0
 97
        1
330
226
 75
               0
 76
               1
 98
        1
 10
0.0
 20
0.0
  0
WIPEOUT
  5
235
100
AcDbEntity
  8
0
370
               5
390
0
  6
Continuous
 62
               7
 92
        0
100
AcDbWipeout
 90
        0
 10
12819.132
 20
5506.3189999999995
 30
0.0
 11
423.33400620354587
 21
0.0
 31
0.0
 12
0.0
 22
423.33400620354587
 32
0.0
 13
1.0
 23
1.0
340
0
 70
               7
280
               1
281
              50
282
              50
283
               0
360
0
 71
               2
 91
        5
 14
-0.5
 24
0.5
 14
0.5
 24
0.5
 14
0.5
 24
0.0000000073270102
 14
-0.5
 24
0.0000000073270102
 14
-0.5
 24
0.5
  0
MTEXT
  5
236
100
AcDbEntity
  8
0
390
0
 62
               7
100
AcDbMText
 10
12819.132
 20
5698.8367510937496
 30
0.0
 40
185.20862500000001
 41
0.0
 71
               1
 72
               1
  1
{\H0.8795x;\lSL 3}
 73
               1
 44
0.7828267384257842
  0
WIPEOUT
  5
237
100
AcDbEntity
  8
0
370
               5
390
0
  6
Continuous
 62
               7
 92
        0
100
AcDbWipeout
 90
        0
 10
12601.368
 20
3251.7690000000002
 30
0.0
 11
211.66699999999992
 21
0.0
 31
0.0
 12
0.0
 22
211.66699999999992
 32
0.0
 13
1.0
 23
1.0
340
0
 70
               7
280
               1
281
              50
282
              50
283
               0
360
0
 71
               2
 91
        5
 14
-0.5
 24
0.5
 14
-0.5
 24
0.5
 14
-0.5
 24
-0.5
 14
-0.5
 24
-0.5
 14
-0.5
 24
0.5
  0
MTEXT
  5
238
100
AcDbEntity
  8
0
390
0
 62
               7
100
AcDbMText
 10
12601.368
 20
3444.2867510937504
 30
0.0
 40
185.20862500000001
 41
0.0
 71
               1
 72
               1
  1
{\H0.8795x;\l\P}
 73
               1
 44
0.7828267384257842
  0
WIPEOUT
  5
239
100
AcDbEntity
  8
0
370
               5
390
0
  6
Continuous
 62
               7
 92
        0
100
AcDbWipeout
 90
        0
 10
12631.0
 20
1972.6260000000002
 30
0.0
 11
1058.3350155088629
 21
0.0
 31
0.0
 12
0.0
 22
1058.3350155088629
 32
0.0
 13
1.0
 23
1.0
340
0
 70
               7
280
               1
281
              50
282
              50
283
               0
360
0
 71
               2
 91
        5
 14
-0.5
 24
0.5
 14
0.5
 24
0.5
 14
0.5
 24
0.3000000029308041
 14
-0.5
 24
0.3000000029308041
 14
-0.5
 24
0.5
  0
MTEXT
  5
23A
100
AcDbEntity
  8
0
390
0
 62
               7
100
AcDbMText
 10
12631.0
 20
2165.1437510937503
 30
0.0
 40
185.20862500000001
 41
0.0
 71
               1
 72
               1
  1
{\H0.8795x;\l引　割　幕}
 73
               1
 44
0.7828267384257842
  0
WIPEOUT
  5
23B
100
AcDbEntity
  8
0
370
               5
390
0
  6
Continuous
 62
               7
 92
        0
100
AcDbWipeout
 90
        0
 10
12620.834000000001
 20
561.80500000000006
 30
0.0
 11
846.66801240709174
 21
0.0
 31
0.0
 12
0.0
 22
846.66801240709174
 32
0.0
 13
1.0
 23
1.0
340
0
 70
               7
280
               1
281
              50
282
              50
283
               0
360
0
 71
               2
 91
        5
 14
-0.5
 24
0.5
 14
0.5
 24
0.5
 14
0.5
 24
0.2500000036635056
 14
-0.5
 24
0.2500000036635056
 14
-0.5
 24
0.5
  0
MTEXT
  5
23C
100
AcDbEntity
  8
0
390
0
 62
               7
100
AcDbMText
 10
12620.834000000001
 20
754.32275109374996
 30
0.0
 40
185.20862500000001
 41
0.0
 71
               1
 72
               1
  1
{\H0.8795x;\lバトン２}
 73
               1
 44
0.7828267384257842
  0
ENDBLK
  5
23D
100
AcDbEntity
  8
平面図
390
0
100
AcDbBlockEnd
  0
ENDSEC
  0
SECTION
  2
ENTITIES
  0
INSERT
  5
23E
100
AcDbEntity
  8
反射板
390
0
 62
               7
100
AcDbBlockReference
  2
グループ
 10
-50.0
 20
2100.0
 30
0.0
  0
INSERT
  5
23F
100
AcDbEntity
  8
平面図
390
0
 62
               7
100
AcDbBlockReference
  2
グループ-1
 10
-50.0
 20
2100.0
 30
0.0
  0
ENDSEC
  0
SECTION
  2
OBJECTS
  0
DICTIONARY
  5
19
100
AcDbDictionary
280
               0
281
               1
  3
ACAD_GROUP
350
1A
  3
ACAD_MLINESTYLE
350
1B
  3
ACAD_LAYOUT
350
1E
  3
ACAD_PLOTSETTINGS
350
22
  3
ACAD_PLOTSTYLENAME
350
1F
  3
ACAD_WIPEOUT_VARS
350
23
  0
DICTIONARY
  5
1A
102
{ACAD_REACTORS
330
19
102
}
100
AcDbDictionary
280
               0
281
               1
  0
DICTIONARY
  5
1B
102
{ACAD_REACTORS
330
19
102
}
100
AcDbDictionary
280
               0
281
               1
  3
Standard
350
1C
  0
MLINESTYLE
  5
1C
102
{ACAD_REACTORS
330
1B
102
}
100
AcDbMlineStyle
  2
Standard
 70
               0
  3

 62
               0
 51
90.0
 52
90.0
 71
               2
 49
0.5
 62
             256
  6
ByLayer
 49
-0.5
 62
             256
  6
ByLayer
  0
ACDBDICTIONARYWDFLT
  5
1F
102
{ACAD_REACTORS
330
19
102
}
100
AcDbDictionary
281
               1
  3
Normal
350
1D
100
AcDbDictionaryWithDefault
340
1D
  0
ACDBPLACEHOLDER
  5
1D
102
{ACAD_REACTORS
330
1F
102
}
  0
LAYOUT
  5
20
102
{ACAD_REACTORS
330
1E
102
}
100
AcDbPlotSettings
  1

  2

  4

  6

 40
0.0
 41
0.0
 42
0.0
 43
0.0
 44
0.0
 45
0.0
 46
0.0
 47
0.0
 48
0.0
 49
0.0
140
0.0
141
0.0
142
1.0
143
1.0
 70
            1024
 72
               0
 73
               0
 74
               0
  7

 75
               0
147
1.0
148
0.0
149
0.0
100
AcDbLayout
  1
Model
 70
               0
 71
               0
 10
0.0
 20
0.0
 11
0.0
 21
0.0
 12
0.0
 22
0.0
 32
0.0
 14
0.0
 24
0.0
 34
0.0
 15
0.0
 25
0.0
 35
0.0
146
0.0
 13
0.0
 23
0.0
 33
0.0
 16
0.0
 26
0.0
 36
0.0
 17
0.0
 27
0.0
 37
0.0
 76
               0
330
A
331
0
345
0
346
0
  0
LAYOUT
  5
21
102
{ACAD_REACTORS
330
1E
102
}
100
AcDbPlotSettings
  1

  2

  4

  6

 40
0.0
 41
0.0
 42
0.0
 43
0.0
 44
0.0
 45
0.0
 46
0.0
 47
0.0
 48
0.0
 49
0.0
140
0.0
141
0.0
142
1.0
143
1.0
 70
               0
 72
               0
 73
               0
 74
               0
  7

 75
               0
147
1.0
148
0.0
149
0.0
100
AcDbLayout
  1
Layout1
 70
               0
 71
               0
 10
0.0
 20
0.0
 11
0.0
 21
0.0
 12
0.0
 22
0.0
 32
0.0
 14
0.0
 24
0.0
 34
0.0
 15
0.0
 25
0.0
 35
0.0
146
0.0
 13
0.0
 23
0.0
 33
0.0
 16
0.0
 26
0.0
 36
0.0
 17
0.0
 27
0.0
 37
0.0
 76
               0
330
B
331
0
345
0
346
0
  0
DICTIONARY
  5
1E
102
{ACAD_REACTORS
330
19
102
}
100
AcDbDictionary
280
               0
281
               1
  3
Layout1
350
21
  3
Model
350
20
  0
DICTIONARY
  5
22
102
{ACAD_REACTORS
330
19
102
}
100
AcDbDictionary
280
               0
281
               1
  0
WIPEOUTVARIABLES
  5
23
100
AcDbWipeoutVariables
 70
               0
  0
ENDSEC
  0
EOF
